  0
SECTION
  2
HEADER
  9
$ACADVER
  1
AC1014
  9
$ACADMAINTVER
 70
           0
  9
$DWGCODEPAGE
  3
DOS932
  9
$INSBASE
 10
0.0
 20
0.0
 30
0.0
  9
$EXTMIN
 10
1.000000000000E+20
 20
1.000000000000E+20
 30
1.000000000000E+20
  9
$EXTMAX
 10
-1.000000000000E+20
 20
-1.000000000000E+20
 30
-1.000000000000E+20
  9
$LIMMIN
 10
0.0
 20
0.0
  9
$LIMMAX
 10
0.0
 20
0.0
  9
$ORTHOMODE
 70
           0
  9
$REGENMODE
 70
           1
  9
$FILLMODE
 70
           1
  9
$QTEXTMODE
 70
           0
  9
$MIRRTEXT
 70
           1
  9
$DRAGMODE
 70
           2
  9
$LTSCALE
 40
1.0
  9
$OSMODE
 70
           0
  9
$ATTMODE
 70
           1
  9
$TEXTSIZE
 40
0.2
  9
$TRACEWID
 40
0.05
  9
$TEXTSTYLE
  7
STANDARD
  9
$CLAYER
  8
0
  9
$CELTYPE
  6
CONTINUOUS
  9
$CECOLOR
 62
         256
  9
$CELTSCALE
 40
1.0
  9
$DELOBJ
 70
           1
  9
$DISPSILH
 70
           0
  9
$DIMSCALE
 40
1.0
  9
$DIMASZ
 40
0.18
  9
$DIMEXO
 40
0.0625
  9
$DIMDLI
 40
0.38
  9
$DIMRND
 40
0.0
  9
$DIMDLE
 40
0.0
  9
$DIMEXE
 40
0.18
  9
$DIMTP
 40
0.0
  9
$DIMTM
 40
0.0
  9
$DIMTXT
 40
0.18
  9
$DIMCEN
 40
0.09
  9
$DIMTSZ
 40
0.0
  9
$DIMTOL
 70
           0
  9
$DIMLIM
 70
           0
  9
$DIMTIH
 70
           1
  9
$DIMTOH
 70
           1
  9
$DIMSE1
 70
           0
  9
$DIMSE2
 70
           0
  9
$DIMTAD
 70
           0
  9
$DIMZIN
 70
           0
  9
$DIMBLK
  1

  9
$DIMASO
 70
           1
  9
$DIMSHO
 70
           1
  9
$DIMPOST
  1

  9
$DIMAPOST
  1

  9
$DIMALT
 70
           0
  9
$DIMALTD
 70
           2
  9
$DIMALTF
 40
25.4
  9
$DIMLFAC
 40
1.0
  9
$DIMTOFL
 70
           0
  9
$DIMTVP
 40
0.0
  9
$DIMTIX
 70
           0
  9
$DIMSOXD
 70
           0
  9
$DIMSAH
 70
           0
  9
$DIMBLK1
  1

  9
$DIMBLK2
  1

  9
$DIMSTYLE
  2
STANDARD
  9
$DIMCLRD
 70
           0
  9
$DIMCLRE
 70
           0
  9
$DIMCLRT
 70
           0
  9
$DIMTFAC
 40
1.0
  9
$DIMGAP
 40
0.09
  9
$DIMJUST
 70
           0
  9
$DIMSD1
 70
           0
  9
$DIMSD2
 70
           0
  9
$DIMTOLJ
 70
           1
  9
$DIMTZIN
 70
           0
  9
$DIMALTZ
 70
           0
  9
$DIMALTTZ
 70
           0
  9
$DIMFIT
 70
           3
  9
$DIMUPT
 70
           0
  9
$DIMUNIT
 70
           2
  9
$DIMDEC
 70
           4
  9
$DIMTDEC
 70
           4
  9
$DIMALTU
 70
           2
  9
$DIMALTTD
 70
           2
  9
$DIMTXSTY
  7
STANDARD
  9
$DIMAUNIT
 70
           0
  9
$LUNITS
 70
           2
  9
$LUPREC
 70
           4
  9
$SKETCHINC
 40
0.1
  9
$FILLETRAD
 40
0.0
  9
$AUNITS
 70
           0
  9
$AUPREC
 70
           0
  9
$MENU
  1
acad
  9
$ELEVATION
 40
0.0
  9
$PELEVATION
 40
0.0
  9
$THICKNESS
 40
0.0
  9
$LIMCHECK
 70
           0
  9
$BLIPMODE
 70
           1
  9
$CHAMFERA
 40
0.0
  9
$CHAMFERB
 40
0.0
  9
$CHAMFERC
 40
0.0
  9
$CHAMFERD
 40
0.0
  9
$SKPOLY
 70
           0
  9
$TDCREATE
 40
0.000000000
  9
$TDUPDATE
 40
0.000000000
  9
$TDINDWG
 40
0.0000000000
  9
$TDUSRTIMER
 40
0.0000000000
  9
$USRTIMER
 70
           1
  9
$ANGBASE
 50
0.0
  9
$ANGDIR
 70
           0
  9
$PDMODE
 70
           0
  9
$PDSIZE
 40
0.0
  9
$PLINEWID
 40
0.0
  9
$COORDS
 70
           0
  9
$SPLFRAME
 70
           0
  9
$SPLINETYPE
 70
           6
  9
$SPLINESEGS
 70
           8
  9
$ATTDIA
 70
           0
  9
$ATTREQ
 70
           1
  9
$HANDLING
 70
           1
  9
$HANDSEED
  5
190
  9
$SURFTAB1
 70
           6
  9
$SURFTAB2
 70
           6
  9
$SURFTYPE
 70
           6
  9
$SURFU
 70
           6
  9
$SURFV
 70
           6
  9
$UCSNAME
  2

  9
$UCSORG
 10
0.0
 20
0.0
 30
0.0
  9
$UCSXDIR
 10
1.0
 20
0.0
 30
0.0
  9
$UCSYDIR
 10
0.0
 20
1.0
 30
0.0
  9
$PUCSNAME
  2

  9
$PUCSORG
 10
0.0
 20
0.0
 30
0.0
  9
$PUCSXDIR
 10
1.0
 20
0.0
 30
0.0
  9
$PUCSYDIR
 10
0.0
 20
1.0
 30
0.0
  9
$USERI1
 70
           0
  9
$USERI2
 70
           0
  9
$USERI3
 70
           0
  9
$USERI4
 70
           0
  9
$USERI5
 70
           0
  9
$USERR1
 40
0.0
  9
$USERR2
 40
0.0
  9
$USERR3
 40
0.0
  9
$USERR4
 40
0.0
  9
$USERR5
 40
0.0
  9
$WORLDVIEW
 70
           1
  9
$SHADEDGE
 70
           3
  9
$SHADEDIF
 70
          70
  9
$TILEMODE
 70
           1
  9
$MAXACTVP
 70
          16
  9
$PINSBASE
 10
0.0
 20
0.0
 30
0.0
  9
$PLIMCHECK
 70
           0
  9
$PEXTMIN
 10
1.000000000000E+20
 20
1.000000000000E+20
 30
1.000000000000E+20
  9
$PEXTMAX
 10
-1.000000000000E+20
 20
-1.000000000000E+20
 30
-1.000000000000E+20
  9
$PLIMMIN
 10
0.0
 20
0.0
  9
$PLIMMAX
 10
12.0
 20
9.0
  9
$UNITMODE
 70
           0
  9
$VISRETAIN
 70
           0
  9
$PLINEGEN
 70
           1
  9
$PSLTSCALE
 70
           0
  9
$TREEDEPTH
 70
        3020
  9
$PICKSTYLE
 70
           1
  9
$CMLSTYLE
  2
STANDARD
  9
$CMLJUST
 70
           0
  9
$CMLSCALE
 40
1.0
  9
$PROXYGRAPHICS
 70
           0
  9
$MEASUREMENT
 70
           0
  0
ENDSEC
  0
SECTION
  2
CLASSES
  0
CLASS
  1
LWPOLYLINE
  2
AcDbPolyline
  3
"AutoCAD"
 90
        0
280
           0
281
           1
  0
CLASS
  1
IMAGE
  2
AcDbRasterImage
  3
ISM
 90
      127
280
           0
281
           1
  0
CLASS
  1
OLE2FRAME
  2
AcDbOle2Frame
  3
""
 90
        0
280
           0
281
           1
  0
CLASS
  1
HATCH
  2
AcDbHatch
  3
"ACAD_SEDONA"
 90
        0
280
           0
281
           1
  0
CLASS
  1
DICTIONARYVAR
  2
AcDbDictionaryVar
  3
"AutoCAD"
 90
        0
280
           0
281
           0
  0
CLASS
  1
RASTERVARIABLES
  2
AcDbRasterVariables
  3
ISM
 90
        0
280
           0
281
           0
  0
CLASS
  1
IMAGEDEF
  2
AcDbRasterImageDef
  3
ISM
 90
        0
280
           0
281
           0
  0
CLASS
  1
IMAGEDEF_REACTOR
  2
AcDbRasterImageDefReactor
  3
ISM
 90
        1
280
           0
281
           0
  0
CLASS
  1
IDBUFFER
  2
AcDbIdBuffer
  3
"Acad"
 90
        0
280
           0
281
           0
  0
CLASS
  1
SPATIAL_FILTER
  2
AcDbSpatialFilter
  3
"Acad"
 90
        0
280
           0
281
           0
  0
CLASS
  1
XRECORD
  2
AcDbXrecord
  3
"<Built In>"
 90
        0
280
           0
281
           0
  0
CLASS
  1
SORTENTSTABLE
  2
AcDbSortentsTable
  3
"AutoCAD"
 90
        0
280
           0
281
           0
  0
CLASS
  1
LAYER_INDEX
  2
AcDbLayerIndex
  3
"Acad"
 90
        0
280
           0
281
           0
  0
CLASS
  1
SPATIAL_INDEX
  2
AcDbSpatialIndex
  3
"Acad"
 90
        0
280
           0
281
           0
  0
CLASS
  1
OBJECT_PTR
  2
CAseDLPNTableRecord
  3
"ASE-LPNTableRecord"
 90
        1
280
           0
281
           0
  0
CLASS
  1
LAYOUT
  2
AcDbLayout
  3
"AutoCAD 2000"
 90
        1
280
           0
281
           0
  0
CLASS
  1
PLOTSETTINGS
  2
AcDbPlotSettings
  3
"AutoCAD 2000"
 90
        1
280
           0
281
           0
  0
CLASS
  1
ACDBDICTIONARYWDFLT
  2
AcDbDictionaryWithDefault
  3
"AutoCAD 2000"
 90
        1
280
           0
281
           0
  0
CLASS
  1
ACDBPLACEHOLDER
  2
AcDbPlaceHolder
  3
"AutoCAD 2000"
 90
        1
280
           0
281
           0
  0
CLASS
  1
VBA_PROJECT
  2
AcDbVbaProject
  3
"acadvba"
 90
        1
280
           0
281
           0
  0
CLASS
  1
WIPEOUT
  2
AcDbWipeout
  3
WipeOut|AutoCAD Express Tool|expresstools@autodesk.com
 90
      127
280
           0
281
           1
  0
CLASS
  1
WIPEOUTVARIABLES
  2
AcDbWipeoutVariables
  3
WipeOut|AutoCAD Express Tool|expresstools@autodesk.com
 90
        0
280
           0
281
           0
  0
CLASS
  1
RTEXT
  2
RText
  3
RText|AutoCAD Express Tool|expresstools@autodesk.com
 90
        0
280
           0
281
           1
  0
CLASS
  1
ARCALIGNEDTEXT
  2
AcDbArcAlignedText
  3
ATEXT|AutoCAD Express Tool|expresstools@autodesk.com
 90
        0
280
           0
281
           1
  0
ENDSEC
  0
SECTION
  2
TABLES
  0
TABLE
  2
VPORT
  5
7
100
AcDbSymbolTable
 70
           1
  0
VPORT
  5
15
100
AcDbSymbolTableRecord
100
AcDbViewportTableRecord
  2
*ACTIVE
 70
           0
 10
0.0
 20
0.0
 11
1.0
 21
1.0
 12
6.591288
 22
4.579184
 13
0.0
 23
0.0
 14
1.0
 24
1.0
 15
0.0
 25
0.0
 16
0.0
 26
0.0
 36
1.0
 17
0.0
 27
0.0
 37
0.0
 40
9.158369
 41
0.688564
 42
50.0
 43
0.0
 44
0.0
 50
0.0
 51
0.0
 71
           0
 72
         100
 73
           1
 74
           1
 75
           0
 76
           0
 77
           0
 78
           0
  0
ENDTAB
  0
TABLE
  2
LTYPE
  5
4
100
AcDbSymbolTable
 70
          10
  0
LTYPE
  5
11
100
AcDbSymbolTableRecord
100
AcDbLinetypeTableRecord
  2
BYBLOCK
 70
          64
  3

 72
          65
 73
           0
 40
0.0
  0
LTYPE
  5
12
100
AcDbSymbolTableRecord
100
AcDbLinetypeTableRecord
  2
BYLAYER
 70
          64
  3

 72
          65
 73
           0
 40
0.0
  0
LTYPE
  5
13
100
AcDbSymbolTableRecord
100
AcDbLinetypeTableRecord
  2
CONTINUOUS
 70
          64
  3
Solid line
 72
          65
 73
           0
 40
0.0
  0
LTYPE
  5
1D
100
AcDbSymbolTableRecord
100
AcDbLinetypeTableRecord
  2
DASHED
 70
          64
  3
Dashed
 72
          65
 73
           2
 40
15.0
 49
12.0
 74
           0
 49
-3.0
 74
           0
  0
LTYPE
  5
1E
100
AcDbSymbolTableRecord
100
AcDbLinetypeTableRecord
  2
DOTTED
 70
          64
  3
Dotted
 72
          65
 73
           2
 40
3.5
 49
0.5
 74
           0
 49
-3.0
 74
           0
  0
LTYPE
  5
1F
100
AcDbSymbolTableRecord
100
AcDbLinetypeTableRecord
  2
DOT_CENTER
 70
          64
  3
Dot_Center
 72
          65
 73
           4
 40
2.0
 49
1.25
 74
           0
 49
-0.25
 74
           0
 49
0.25
 74
           0
 49
-0.25
 74
           0
  0
LTYPE
  5
20
100
AcDbSymbolTableRecord
100
AcDbLinetypeTableRecord
  2
LONG_DASHED
 70
          64
  3
Long_Dashed
 72
          65
 73
           2
 40
2.0
 49
1.5
 74
           0
 49
-0.5
 74
           0
  0
LTYPE
  5
21
100
AcDbSymbolTableRecord
100
AcDbLinetypeTableRecord
  2
DASH_CENTER
 70
          64
  3
Dash_Center
 72
          65
 73
           4
 40
36.0
 49
24.0
 74
           0
 49
-3.0
 74
           0
 49
6.0
 74
           0
 49
-3.0
 74
           0
  0
LTYPE
  5
22
100
AcDbSymbolTableRecord
100
AcDbLinetypeTableRecord
  2
PHANTOM
 70
          64
  3
Phantom
 72
          65
 73
           6
 40
2.5
 49
1.25
 74
           0
 49
-0.25
 74
           0
 49
0.25
 74
           0
 49
-0.25
 74
           0
 49
0.25
 74
           0
 49
-0.25
 74
           0
  0
LTYPE
  5
23
100
AcDbSymbolTableRecord
100
AcDbLinetypeTableRecord
  2
CENTER_DASH_DASH
 70
          64
  3
Center_Dash_Dash
 72
          65
 73
           6
 40
22.0
 49
12.0
 74
           0
 49
-3.0
 74
           0
 49
0.5
 74
           0
 49
-3.0
 74
           0
 49
0.5
 74
           0
 49
-3.0
 74
           0
  0
ENDTAB
  0
TABLE
  2
LAYER
  5
2
100
AcDbSymbolTable
 70
           3
  0
LAYER
  5
14
100
AcDbSymbolTableRecord
100
AcDbLayerTableRecord
  2
0
 70
           0
 62
           7
  6
CONTINUOUS
  0
LAYER
  5
24
100
AcDbSymbolTableRecord
100
AcDbLayerTableRecord
  2
976
 70
           0
 62
           7
  6
CONTINUOUS
  0
LAYER
  5
25
100
AcDbSymbolTableRecord
100
AcDbLayerTableRecord
  2
1
 70
           0
 62
           7
  6
CONTINUOUS
  0
ENDTAB
  0
TABLE
  2
STYLE
  5
3
100
AcDbSymbolTable
 70
           1
  0
STYLE
  5
17
100
AcDbSymbolTableRecord
100
AcDbTextStyleTableRecord
  2
STANDARD
 70
           0
 40
0.0
 41
1.0
 50
0.0
 71
           0
 42
0.0
  3
txt
  4

  0
ENDTAB
  0
TABLE
  2
VIEW
  5
5
100
AcDbSymbolTable
 70
           0
  0
ENDTAB
  0
TABLE
  2
UCS
  5
6
100
AcDbSymbolTable
 70
           0
  0
ENDTAB
  0
TABLE
  2
APPID
  5
8
100
AcDbSymbolTable
 70
           1
  0
APPID
  5
16
100
AcDbSymbolTableRecord
100
AcDbRegAppTableRecord
  2
ACAD
 70
           0
  0
ENDTAB
  0
TABLE
  2
DIMSTYLE
  5
9
100
AcDbSymbolTable
 70
           1
  0
DIMSTYLE
105
18
100
AcDbSymbolTableRecord
100
AcDbDimStyleTableRecord
  2
STANDARD
 70
           0
  3

  4

  5

  6

  7

 40
1.0
 41
0.18
 42
0.0625
 43
0.38
 44
0.18
 45
0.0
 46
0.0
 47
0.0
 48
0.0
 71
           0
 72
           0
 73
           1
 74
           1
 75
           0
 76
           0
 77
           0
 78
           0
140
0.18
141
0.09
142
0.0
143
25.4
144
1.0
145
0.0
146
1.0
147
0.09
170
           0
171
           2
172
           0
173
           0
174
           0
175
           0
176
           0
177
           0
178
           0
270
           2
271
           4
272
           4
273
           2
274
           2
275
           0
280
           0
281
           0
282
           0
283
           1
284
           0
285
           0
286
           0
287
           0
288
           0
340
17
  0
ENDTAB
  0
TABLE
  2
BLOCK_RECORD
  5
1
100
AcDbSymbolTable
 70
           0
  0
BLOCK_RECORD
  5
A
100
AcDbSymbolTableRecord
100
AcDbBlockTableRecord
  2
*MODEL_SPACE
  0
BLOCK_RECORD
  5
B
100
AcDbSymbolTableRecord
100
AcDbBlockTableRecord
  2
*PAPER_SPACE
  0
ENDTAB
  0
ENDSEC
  0
SECTION
  2
BLOCKS
  0
BLOCK
  5
D
100
AcDbEntity
  8
0
100
AcDbBlockBegin
  2
*MODEL_SPACE
 70
           0
 10
0.0
 20
0.0
 30
0.0
  3
*MODEL_SPACE
  1

  0
ENDBLK
  5
E
100
AcDbEntity
  8
0
100
AcDbBlockEnd
  0
BLOCK
  5
F
100
AcDbEntity
 67
           1
  8
0
100
AcDbBlockBegin
  2
*PAPER_SPACE
 70
           0
 10
0.0
 20
0.0
 30
0.0
  3
*PAPER_SPACE
  1

  0
ENDBLK
  5
10
100
AcDbEntity
 67
           1
  8
0
100
AcDbBlockEnd
  0
ENDSEC
  0
SECTION
  2
ENTITIES
  0
HATCH
  5
18E
100
AcDbEntity
  8
0
  6
CONTINUOUS
 62
           4
100
AcDbHatch
 10
0.0
 20
0.0
 30
0.0
210
0.0
220
0.0
230
1.0
  2
USER
 70
           0
 71
           1
 91
        1
 92
        1
 93
        8
 72
           2
 10
847.76659390332759
 20
-1249.6690234660559
 40
3.0000000000001781
 50
84.260829522732
 51
90.0
 73
           1
 72
           2
 10
847.76659390332759
 20
-1249.6690234660559
 40
3.0
 50
90.0
 51
180.0
 73
           1
 72
           2
 10
847.76659390332759
 20
-1249.6690234660559
 40
3.0
 50
180.0
 51
-90.0
 73
           1
 72
           2
 10
847.76659390332759
 20
-1249.6690234660559
 40
3.0
 50
-90.0
 51
-84.260829522732
 73
           1
 72
           1
 10
848.06659390332766
 20
-1251.7474844351391
 11
848.06659390332766
 21
-1252.653985777376
 72
           2
 10
847.76659390332759
 20
-1249.6690234660559
 40
2.0999999999999091
 50
180.0
 51
-81.786789298262
 73
           1
 72
           2
 10
847.76659390332759
 20
-1249.6690234660559
 40
2.0999999999993797
 50
81.786789298257
 51
180.0
 73
           1
 72
           1
 10
848.06659390332766
 20
-1246.6840611547359
 11
848.06659390332766
 21
-1247.5905624969739
 97
        8
330
145
330
13E
330
143
330
13D
330
64
330
140
330
13F
330
65
 75
           1
 76
           0
 52
45.0
 41
0.25
 77
           0
 78
           1
 53
45.0
 43
-133.749434411485
 44
-164.917656335992
 45
-0.1767766952966369
 46
0.1767766952966369
 79
           0
 98
        1
 10
0.0
 20
0.0
  0
HATCH
  5
18D
100
AcDbEntity
  8
0
  6
CONTINUOUS
 62
           4
100
AcDbHatch
 10
0.0
 20
0.0
 30
0.0
210
0.0
220
0.0
230
1.0
  2
USER
 70
           0
 71
           1
 91
        1
 92
        1
 93
       10
 72
           2
 10
852.86659390332761
 20
-1249.6690234660559
 40
3.0000000000001781
 50
84.260829522732
 51
90.0
 73
           1
 72
           2
 10
852.86659390332761
 20
-1249.6690234660559
 40
3.0
 50
90.0
 51
-90.0
 73
           1
 72
           2
 10
852.86659390332761
 20
-1249.6690234660559
 40
3.0
 50
-90.0
 51
-84.260829522732
 73
           1
 72
           1
 10
853.16659390332768
 20
-1251.7474844351391
 11
853.16659390332768
 21
-1252.653985777376
 72
           2
 10
852.86659390332761
 20
-1249.6690234660559
 40
2.0999999999999228
 50
-167.626374883809
 51
-81.786789298262
 73
           1
 72
           1
 10
850.8153747536511
 20
-1250.119023466056
 11
852.56659390332766
 21
-1250.119023466056
 72
           1
 10
852.56659390332766
 20
-1249.2190234660559
 11
852.56659390332766
 21
-1250.119023466056
 72
           1
 10
850.8153747536511
 20
-1249.2190234660559
 11
852.56659390332766
 21
-1249.2190234660559
 72
           2
 10
852.86659390332761
 20
-1249.6690234660559
 40
2.0999999999993797
 50
81.786789298257
 51
167.626374883809
 73
           1
 72
           1
 10
853.16659390332768
 20
-1246.6840611547359
 11
853.16659390332768
 21
-1247.5905624969739
 97
       10
330
144
330
142
330
13B
330
62
330
13C
330
60
330
5F
330
61
330
141
330
63
 75
           1
 76
           0
 52
45.0
 41
0.25
 77
           0
 78
           1
 53
45.0
 43
-133.749434411485
 44
-164.917656335992
 45
-0.1767766952966369
 46
0.1767766952966369
 79
           0
 98
        1
 10
0.0
 20
0.0
  0
ARC
  5
18C
100
AcDbEntity
  8
1
  6
CONTINUOUS
 62
           7
100
AcDbCircle
 10
815.266593903337
 20
-1405.982254699524
 40
0.5
100
AcDbArc
 50
90.000000000013
 51
180.0
  0
ARC
  5
18B
100
AcDbEntity
  8
1
  6
CONTINUOUS
 62
           7
100
AcDbCircle
 10
815.266593903337
 20
-1427.982254699525
 40
0.5
100
AcDbArc
 50
180.0
 51
-90.0
  0
ARC
  5
18A
100
AcDbEntity
  8
1
  6
CONTINUOUS
 62
           7
100
AcDbCircle
 10
843.266593903337
 20
-1437.482254699524
 40
0.5
100
AcDbArc
 50
180.0
 51
-90.0
  0
ARC
  5
189
100
AcDbEntity
  8
1
  6
CONTINUOUS
 62
           7
100
AcDbCircle
 10
870.266593903337
 20
-1437.482254699524
 40
0.5
100
AcDbArc
 50
-90.000000000026
 51
0.0
  0
ARC
  5
188
100
AcDbEntity
  8
1
  6
CONTINUOUS
 62
           7
100
AcDbCircle
 10
898.266593903337
 20
-1427.982254699525
 40
0.499999999999
100
AcDbArc
 50
-90.0
 51
0.0
  0
ARC
  5
187
100
AcDbEntity
  8
1
  6
CONTINUOUS
 62
           7
100
AcDbCircle
 10
898.266593903337
 20
-1405.982254699524
 40
0.5
100
AcDbArc
 50
0.0
 51
90.0
  0
ARC
  5
186
100
AcDbEntity
  8
1
  6
CONTINUOUS
 62
           7
100
AcDbCircle
 10
861.874537215697
 20
-1352.952254699525
 40
1.0
100
AcDbArc
 50
0.0
 51
90.0
  0
ARC
  5
185
100
AcDbEntity
  8
1
  6
CONTINUOUS
 62
           7
100
AcDbCircle
 10
851.65865059097
 20
-1352.952254699525
 40
1.0
100
AcDbArc
 50
90.0
 51
180.0
  0
ARC
  5
184
100
AcDbEntity
  8
1
  6
CONTINUOUS
 62
           7
100
AcDbCircle
 10
913.096927085429
 20
-1377.482254699523
 40
0.5
100
AcDbArc
 50
90.0
 51
180.0
  0
ARC
  5
183
100
AcDbEntity
  8
1
  6
CONTINUOUS
 62
           7
100
AcDbCircle
 10
925.496260721245
 20
-1377.482254699523
 40
0.5
100
AcDbArc
 50
0.0
 51
90.0
  0
ARC
  5
182
100
AcDbEntity
  8
1
  6
CONTINUOUS
 62
           7
100
AcDbCircle
 10
920.168428898405
 20
-1396.854089694591
 40
5.0
100
AcDbArc
 50
-90.0
 51
0.0
  0
LWPOLYLINE
  5
181
100
AcDbEntity
  8
1
  6
CONTINUOUS
 62
           7
 60
           1
100
AcDbPolyline
 90
        4
 70
           0
 10
900.766094574288
 20
-1371.382254699524
 10
899.653836509772
 20
-1372.49451276404
 10
888.692494574288
 20
-1372.837054699524
 10
888.692494574288
 20
-1372.915535188359
  0
LWPOLYLINE
  5
180
100
AcDbEntity
  8
1
  6
CONTINUOUS
 62
           7
 60
           1
100
AcDbPolyline
 90
        4
 70
           0
 10
848.766593903337
 20
-1428.796362579726
 10
847.578593903337
 20
-1429.482254699524
 10
847.578593903337
 20
-1440.482254699524
 10
843.266593903337
 20
-1440.482254699524
  0
LWPOLYLINE
  5
17F
100
AcDbEntity
  8
1
  6
CONTINUOUS
 62
           7
 60
           1
100
AcDbPolyline
 90
        4
 70
           0
 10
864.766593903337
 20
-1428.796362579726
 10
865.954593903337
 20
-1429.482254699524
 10
865.954593903337
 20
-1440.482254699524
 10
870.266593903337
 20
-1440.482254699524
  0
CIRCLE
  5
17E
100
AcDbEntity
  8
1
  6
CONTINUOUS
 62
           7
100
AcDbCircle
 10
856.766593903337
 20
-1240.66495337031
 40
3.0
  0
CIRCLE
  5
17D
100
AcDbEntity
  8
1
  6
CONTINUOUS
 62
           7
100
AcDbCircle
 10
888.809533843352
 20
-1222.164953370303
 40
4.25
  0
CIRCLE
  5
17C
100
AcDbEntity
  8
1
  6
CONTINUOUS
 62
           7
100
AcDbCircle
 10
888.809533843352
 20
-1222.164953370303
 40
3.730384757729
  0
CIRCLE
  5
17B
100
AcDbEntity
  8
1
  6
CONTINUOUS
 62
           7
100
AcDbCircle
 10
888.809533843352
 20
-1259.164953370303
 40
4.25
  0
CIRCLE
  5
17A
100
AcDbEntity
  8
1
  6
CONTINUOUS
 62
           7
100
AcDbCircle
 10
888.809533843352
 20
-1259.164953370303
 40
3.730384757729
  0
CIRCLE
  5
179
100
AcDbEntity
  8
1
  6
CONTINUOUS
 62
           7
100
AcDbCircle
 10
856.766593903346
 20
-1277.664953370303
 40
4.25
  0
CIRCLE
  5
178
100
AcDbEntity
  8
1
  6
CONTINUOUS
 62
           7
100
AcDbCircle
 10
856.766593903346
 20
-1277.664953370303
 40
3.730384757729
  0
CIRCLE
  5
177
100
AcDbEntity
  8
1
  6
CONTINUOUS
 62
           7
100
AcDbCircle
 10
824.723653963322
 20
-1259.164953370303
 40
4.25
  0
CIRCLE
  5
176
100
AcDbEntity
  8
1
  6
CONTINUOUS
 62
           7
100
AcDbCircle
 10
824.723653963322
 20
-1259.164953370303
 40
3.730384757729
  0
CIRCLE
  5
175
100
AcDbEntity
  8
1
  6
CONTINUOUS
 62
           7
100
AcDbCircle
 10
824.723653963322
 20
-1222.164953370303
 40
4.25
  0
CIRCLE
  5
174
100
AcDbEntity
  8
1
  6
CONTINUOUS
 62
           7
100
AcDbCircle
 10
824.723653963322
 20
-1222.164953370303
 40
3.730384757729
  0
CIRCLE
  5
173
100
AcDbEntity
  8
1
  6
CONTINUOUS
 62
           7
100
AcDbCircle
 10
856.766593903337
 20
-1203.664953370303
 40
4.25
  0
CIRCLE
  5
172
100
AcDbEntity
  8
1
  6
CONTINUOUS
 62
           7
100
AcDbCircle
 10
856.766593903337
 20
-1203.664953370303
 40
3.730384757729
  0
CIRCLE
  5
171
100
AcDbEntity
  8
1
  6
CONTINUOUS
 62
           7
100
AcDbCircle
 10
856.766593903337
 20
-1240.66495337031
 40
6.107943312367
  0
ARC
  5
170
100
AcDbEntity
  8
1
  6
DOTTED
 62
           2
100
AcDbCircle
 10
917.796593903336
 20
-1369.735131587334
 40
1.875
100
AcDbArc
 50
-143.130102354156
 51
-36.869897645844
  0
ARC
  5
16F
100
AcDbEntity
  8
1
  6
DOTTED
 62
           2
100
AcDbCircle
 10
920.796593903336
 20
-1371.985131587334
 40
1.875
100
AcDbArc
 50
36.869897645844
 51
143.130102354156
  0
ARC
  5
16E
100
AcDbEntity
  8
1
  6
DOTTED
 62
           2
100
AcDbCircle
 10
858.266593903337
 20
-1347.49646760699
 40
1.875
100
AcDbArc
 50
36.869897645844
 51
143.130102354156
  0
ARC
  5
16D
100
AcDbEntity
  8
1
  6
DOTTED
 62
           2
100
AcDbCircle
 10
855.266593903337
 20
-1345.24646760699
 40
1.875
100
AcDbArc
 50
-143.130102354156
 51
-36.869897645844
  0
ARC
  5
16C
100
AcDbEntity
  8
1
  6
CONTINUOUS
 62
           7
100
AcDbCircle
 10
848.124292158639
 20
-1379.721914275826
 40
42.295078609461
100
AcDbArc
 50
-123.521901478727
 51
-92.322341098708
  0
ARC
  5
16B
100
AcDbEntity
  8
1
  6
CONTINUOUS
 62
           7
100
AcDbCircle
 10
837.563741244996
 20
-1421.294228709333
 40
8.873409345909
100
AcDbArc
 50
-54.102146557355
 51
-4.447061084939
  0
ARC
  5
16A
100
AcDbEntity
  8
1
  6
CONTINUOUS
 62
           7
100
AcDbCircle
 10
875.969446561678
 20
-1421.294228709333
 40
8.87340934591
100
AcDbArc
 50
-175.552938915061
 51
-125.897853442644
  0
ARC
  5
169
100
AcDbEntity
  8
1
  6
CONTINUOUS
 62
           7
100
AcDbCircle
 10
865.408895648035
 20
-1379.721914275826
 40
42.295078609461
100
AcDbArc
 50
-87.677658901292
 51
-56.478098521272
  0
ARC
  5
168
100
AcDbEntity
  8
1
  6
CONTINUOUS
 62
           7
100
AcDbCircle
 10
867.15889874875
 20
-1444.482254699524
 40
6.5
100
AcDbArc
 50
90.0
 51
122.204227503971
  0
ARC
  5
167
100
AcDbEntity
  8
1
  6
CONTINUOUS
 62
           7
100
AcDbCircle
 10
867.15889874875
 20
-1436.482254699524
 40
6.5
100
AcDbArc
 50
-90.0
 51
-57.795772496028
  0
ARC
  5
166
100
AcDbEntity
  8
1
  6
CONTINUOUS
 62
           7
100
AcDbCircle
 10
846.374289057924
 20
-1444.482254699524
 40
6.5
100
AcDbArc
 50
90.0
 51
122.204227503971
  0
ARC
  5
165
100
AcDbEntity
  8
1
  6
CONTINUOUS
 62
           7
100
AcDbCircle
 10
846.374289057924
 20
-1436.482254699524
 40
6.5
100
AcDbArc
 50
-90.0
 51
-57.795772496028
  0
ARC
  5
164
100
AcDbEntity
  8
1
  6
CONTINUOUS
 62
           7
100
AcDbCircle
 10
856.766593903337
 20
-1462.482254699524
 40
24.5
100
AcDbArc
 50
73.573578596523
 51
106.426421403476
  0
ARC
  5
163
100
AcDbEntity
  8
1
  6
CONTINUOUS
 62
           7
100
AcDbCircle
 10
856.766593903337
 20
-1418.482254699524
 40
24.5
100
AcDbArc
 50
-106.426421403476
 51
-73.573578596523
  0
ARC
  5
162
100
AcDbEntity
  8
1
  6
CONTINUOUS
 62
           7
100
AcDbCircle
 10
867.15889874875
 20
-1436.482254699524
 40
6.5
100
AcDbArc
 50
-122.204227503971
 51
-90.0
  0
ARC
  5
161
100
AcDbEntity
  8
1
  6
CONTINUOUS
 62
           7
100
AcDbCircle
 10
867.15889874875
 20
-1444.482254699524
 40
6.5
100
AcDbArc
 50
57.795772496028
 51
90.0
  0
ARC
  5
160
100
AcDbEntity
  8
1
  6
CONTINUOUS
 62
           7
100
AcDbCircle
 10
846.374289057924
 20
-1436.482254699524
 40
6.5
100
AcDbArc
 50
-122.204227503971
 51
-90.0
  0
ARC
  5
15F
100
AcDbEntity
  8
1
  6
CONTINUOUS
 62
           7
100
AcDbCircle
 10
846.374289057924
 20
-1444.482254699524
 40
6.5
100
AcDbArc
 50
57.795772496028
 51
90.0
  0
ARC
  5
15E
100
AcDbEntity
  8
1
  6
CONTINUOUS
 62
           7
100
AcDbCircle
 10
851.543517691983
 20
-1356.267521880534
 40
1.315267181013
100
AcDbArc
 50
13.868728806785
 51
166.131271193141
  0
ARC
  5
15D
100
AcDbEntity
  8
1
  6
CONTINUOUS
 62
           7
100
AcDbCircle
 10
856.766593903337
 20
-1358.577254699525
 40
3.625
100
AcDbArc
 50
46.397181027296
 51
133.602818972703
  0
ARC
  5
15C
100
AcDbEntity
  8
1
  6
CONTINUOUS
 62
           7
100
AcDbCircle
 10
861.989670114691
 20
-1356.267521880534
 40
1.315267181006
100
AcDbArc
 50
13.86872880686
 51
166.13127119314
  0
ARC
  5
15B
100
AcDbEntity
  8
1
  6
CONTINUOUS
 62
           7
100
AcDbCircle
 10
851.543517691983
 20
-1365.636987518523
 40
1.315267181004
100
AcDbArc
 50
-166.131271193449
 51
-13.868728806477
  0
ARC
  5
15A
100
AcDbEntity
  8
1
  6
CONTINUOUS
 62
           7
100
AcDbCircle
 10
856.766593903337
 20
-1363.327254699525
 40
3.625
100
AcDbArc
 50
-133.602818972703
 51
-46.397181027296
  0
ARC
  5
159
100
AcDbEntity
  8
1
  6
CONTINUOUS
 62
           7
100
AcDbCircle
 10
861.989670114691
 20
-1365.636987518523
 40
1.315267181004
100
AcDbArc
 50
-166.131271193448
 51
-13.868728806552
  0
ARC
  5
158
100
AcDbEntity
  8
1
  6
CONTINUOUS
 62
           7
100
AcDbCircle
 10
856.766593903337
 20
-1240.66495337031
 40
41.0
100
AcDbArc
 50
-27.887233868637
 51
27.887233868629
  0
ARC
  5
157
100
AcDbEntity
  8
1
  6
CONTINUOUS
 62
           7
100
AcDbCircle
 10
856.766593903337
 20
-1240.66495337031
 40
41.0
100
AcDbArc
 50
-87.887233868606
 51
-32.112766131357
  0
ARC
  5
156
100
AcDbEntity
  8
1
  6
CONTINUOUS
 62
           7
100
AcDbCircle
 10
856.766593903337
 20
-1240.66495337031
 40
41.0
100
AcDbArc
 50
-147.887233868642
 51
-92.112766131364
  0
ARC
  5
155
100
AcDbEntity
  8
1
  6
CONTINUOUS
 62
           7
100
AcDbCircle
 10
856.766593903337
 20
-1240.66495337031
 40
41.0
100
AcDbArc
 50
152.112766131371
 51
-152.112766131363
  0
ARC
  5
154
100
AcDbEntity
  8
1
  6
CONTINUOUS
 62
           7
100
AcDbCircle
 10
856.766593903337
 20
-1240.66495337031
 40
41.0
100
AcDbArc
 50
92.112766131435
 51
147.887233868594
  0
ARC
  5
153
100
AcDbEntity
  8
1
  6
CONTINUOUS
 62
           7
100
AcDbCircle
 10
856.766593903337
 20
-1240.66495337031
 40
41.0
100
AcDbArc
 50
32.112766131405
 51
87.887233868564
  0
ARC
  5
152
100
AcDbEntity
  8
1
  6
CONTINUOUS
 62
           6
100
AcDbCircle
 10
856.766593903337
 20
-1240.66495337031
 40
4.283
100
AcDbArc
 50
-90.0
 51
90.0
  0
ARC
  5
151
100
AcDbEntity
  8
1
  6
CONTINUOUS
 62
           6
100
AcDbCircle
 10
856.766593903337
 20
-1240.66495337031
 40
4.864
100
AcDbArc
 50
-90.0
 51
90.0
  0
ARC
  5
150
100
AcDbEntity
  8
1
  6
CONTINUOUS
 62
           7
100
AcDbCircle
 10
856.766593903337
 20
-1240.66495337031
 40
42.0
100
AcDbArc
 50
-90.0
 51
90.0
  0
ARC
  5
14F
100
AcDbEntity
  8
1
  6
DOT_CENTER
 62
           2
100
AcDbCircle
 10
856.766593903328
 20
-1240.664953370303
 40
37.0
100
AcDbArc
 50
-36.006052791266
 51
-23.980932093616
  0
ARC
  5
14E
100
AcDbEntity
  8
1
  6
DOT_CENTER
 62
           2
100
AcDbCircle
 10
856.766593903328
 20
-1240.664953370303
 40
37.0
100
AcDbArc
 50
-36.006052791266
 51
-23.980932093616
  0
ARC
  5
14D
100
AcDbEntity
  8
1
  6
DOT_CENTER
 62
           2
100
AcDbCircle
 10
856.766593903328
 20
-1240.664953370303
 40
37.0
100
AcDbArc
 50
23.993947208733
 51
36.019067906384
  0
ARC
  5
14C
100
AcDbEntity
  8
1
  6
DOT_CENTER
 62
           2
100
AcDbCircle
 10
856.766593903346
 20
-1240.664953370303
 40
37.0
100
AcDbArc
 50
143.980932093616
 51
156.006052791267
  0
ARC
  5
14B
100
AcDbEntity
  8
1
  6
DOT_CENTER
 62
           2
100
AcDbCircle
 10
856.766593903346
 20
-1240.664953370303
 40
37.0
100
AcDbArc
 50
-156.019067906383
 51
-143.993947208733
  0
ARC
  5
14A
100
AcDbEntity
  8
1
  6
DOT_CENTER
 62
           2
100
AcDbCircle
 10
856.766593903346
 20
-1240.664953370303
 40
37.0
100
AcDbArc
 50
-156.019067906383
 51
-143.993947208733
  0
ARC
  5
149
100
AcDbEntity
  8
1
  6
DOT_CENTER
 62
           2
100
AcDbCircle
 10
856.766593903346
 20
-1240.664953370303
 40
37.0
100
AcDbArc
 50
-96.019067906384
 51
-83.993947208733
  0
ARC
  5
148
100
AcDbEntity
  8
1
  6
CONTINUOUS
 62
           7
100
AcDbCircle
 10
856.766593903337
 20
-1240.66495337031
 40
42.0
100
AcDbArc
 50
90.0
 51
-90.0
  0
ARC
  5
147
100
AcDbEntity
  8
1
  6
CONTINUOUS
 62
           6
100
AcDbCircle
 10
856.766593903337
 20
-1240.66495337031
 40
4.864
100
AcDbArc
 50
90.0
 51
-90.0
  0
ARC
  5
146
100
AcDbEntity
  8
1
  6
CONTINUOUS
 62
           6
100
AcDbCircle
 10
856.766593903337
 20
-1240.66495337031
 40
4.283
100
AcDbArc
 50
90.0
 51
-90.0
  0
ARC
  5
145
100
AcDbEntity
  8
1
  6
CONTINUOUS
 62
           2
100
AcDbCircle
 10
847.766593903328
 20
-1249.669023466056
 40
3.0
100
AcDbArc
 50
84.260829522732
 51
90.0
  0
ARC
  5
144
100
AcDbEntity
  8
1
  6
CONTINUOUS
 62
           2
100
AcDbCircle
 10
852.866593903328
 20
-1249.669023466056
 40
3.0
100
AcDbArc
 50
84.260829522732
 51
90.0
  0
ARC
  5
143
100
AcDbEntity
  8
1
  6
CONTINUOUS
 62
           2
100
AcDbCircle
 10
847.766593903328
 20
-1249.669023466056
 40
3.0
100
AcDbArc
 50
180.0
 51
-90.0
  0
ARC
  5
142
100
AcDbEntity
  8
1
  6
CONTINUOUS
 62
           2
100
AcDbCircle
 10
852.866593903328
 20
-1249.669023466056
 40
3.0
100
AcDbArc
 50
90.0
 51
-90.0
  0
ARC
  5
141
100
AcDbEntity
  8
1
  6
CONTINUOUS
 62
           2
100
AcDbCircle
 10
852.866593903328
 20
-1249.669023466056
 40
2.099999999999
100
AcDbArc
 50
81.786789298257
 51
167.626374883809
  0
ARC
  5
140
100
AcDbEntity
  8
1
  6
CONTINUOUS
 62
           2
100
AcDbCircle
 10
847.766593903328
 20
-1249.669023466056
 40
2.1
100
AcDbArc
 50
180.0
 51
-81.786789298262
  0
ARC
  5
13F
100
AcDbEntity
  8
1
  6
CONTINUOUS
 62
           2
100
AcDbCircle
 10
847.766593903328
 20
-1249.669023466056
 40
2.099999999999
100
AcDbArc
 50
81.786789298257
 51
180.0
  0
ARC
  5
13E
100
AcDbEntity
  8
1
  6
CONTINUOUS
 62
           2
100
AcDbCircle
 10
847.766593903328
 20
-1249.669023466056
 40
3.0
100
AcDbArc
 50
90.0
 51
180.0
  0
ARC
  5
13D
100
AcDbEntity
  8
1
  6
CONTINUOUS
 62
           2
100
AcDbCircle
 10
847.766593903328
 20
-1249.669023466056
 40
3.0
100
AcDbArc
 50
-90.0
 51
-84.260829522732
  0
ARC
  5
13C
100
AcDbEntity
  8
1
  6
CONTINUOUS
 62
           2
100
AcDbCircle
 10
852.866593903328
 20
-1249.669023466056
 40
2.1
100
AcDbArc
 50
-167.626374883809
 51
-81.786789298262
  0
ARC
  5
13B
100
AcDbEntity
  8
1
  6
CONTINUOUS
 62
           2
100
AcDbCircle
 10
852.866593903328
 20
-1249.669023466056
 40
3.0
100
AcDbArc
 50
-90.0
 51
-84.260829522732
  0
ARC
  5
13A
100
AcDbEntity
  8
1
  6
CONTINUOUS
 62
           7
100
AcDbCircle
 10
915.216037319736
 20
-1396.982254699523
 40
12.419443416399
100
AcDbArc
 50
162.412046226003
 51
-162.412046226008
  0
ARC
  5
139
100
AcDbEntity
  8
1
  6
CONTINUOUS
 62
           7
100
AcDbCircle
 10
894.477150486938
 20
-1396.982254699523
 40
12.419443416399
100
AcDbArc
 50
-17.587953773991
 51
17.587953773996
  0
LINE
  5
138
100
AcDbEntity
  8
1
  6
DOT_CENTER
 62
           2
100
AcDbLine
 10
928.766145408684
 20
-1396.982254699523
 11
890.639923368801
 21
-1396.982254699523
  0
LINE
  5
137
100
AcDbEntity
  8
1
  6
DOTTED
 62
           2
100
AcDbLine
 10
916.296593903336
 20
-1376.982254699523
 11
916.296593903336
 21
-1370.860131587334
  0
LINE
  5
136
100
AcDbEntity
  8
1
  6
DOTTED
 62
           2
100
AcDbLine
 10
922.296593903336
 20
-1370.860131587334
 11
922.296593903336
 21
-1376.982254699523
  0
LINE
  5
135
100
AcDbEntity
  8
1
  6
DOTTED
 62
           2
100
AcDbLine
 10
859.766593903337
 20
-1346.37146760699
 11
859.766593903337
 21
-1352.493590719179
  0
LINE
  5
134
100
AcDbEntity
  8
1
  6
DOTTED
 62
           2
100
AcDbLine
 10
853.766593903337
 20
-1352.493590719179
 11
853.766593903337
 21
-1346.37146760699
  0
LINE
  5
133
100
AcDbEntity
  8
1
  6
DOT_CENTER
 62
           2
100
AcDbLine
 10
856.766593903337
 20
-1342.12757236949
 11
856.766593903337
 21
-1466.413144963663
  0
LINE
  5
132
100
AcDbEntity
  8
1
  6
CONTINUOUS
 62
           7
100
AcDbLine
 10
856.766593903337
 20
-1401.482254699524
 11
835.766593903337
 21
-1401.482254699524
  0
LINE
  5
131
100
AcDbEntity
  8
1
  6
CONTINUOUS
 62
           7
100
AcDbLine
 10
835.766593903337
 20
-1395.082254699524
 11
835.766593903337
 21
-1385.482254699524
  0
LINE
  5
130
100
AcDbEntity
  8
1
  6
CONTINUOUS
 62
           7
100
AcDbLine
 10
877.766593903337
 20
-1395.082254699524
 11
877.766593903337
 21
-1401.482254699524
  0
LINE
  5
12F
100
AcDbEntity
  8
1
  6
CONTINUOUS
 62
           7
100
AcDbLine
 10
835.766593903337
 20
-1401.482254699524
 11
835.766593903337
 21
-1395.082254699524
  0
LINE
  5
12E
100
AcDbEntity
  8
1
  6
CONTINUOUS
 62
           7
100
AcDbLine
 10
835.766593903337
 20
-1385.482254699524
 11
877.766593903337
 21
-1385.482254699524
  0
LINE
  5
12D
100
AcDbEntity
  8
1
  6
CONTINUOUS
 62
           7
100
AcDbLine
 10
877.766593903337
 20
-1385.482254699524
 11
877.766593903337
 21
-1395.082254699524
  0
LINE
  5
12C
100
AcDbEntity
  8
1
  6
CONTINUOUS
 62
           7
100
AcDbLine
 10
877.766593903337
 20
-1401.482254699524
 11
856.766593903337
 21
-1401.482254699524
  0
LINE
  5
12B
100
AcDbEntity
  8
1
  6
CONTINUOUS
 62
           7
100
AcDbLine
 10
815.266593903337
 20
-1403.982254699524
 11
898.266593903337
 21
-1403.982254699524
  0
LINE
  5
12A
100
AcDbEntity
  8
1
  6
CONTINUOUS
 62
           7
100
AcDbLine
 10
815.266593903337
 20
-1383.982254699524
 11
898.266593903337
 21
-1383.982254699524
  0
LINE
  5
129
100
AcDbEntity
  8
1
  6
CONTINUOUS
 62
           7
100
AcDbLine
 10
814.766593903337
 20
-1383.482254699524
 11
898.766593903337
 21
-1383.482254699524
  0
LINE
  5
128
100
AcDbEntity
  8
1
  6
CONTINUOUS
 62
           7
100
AcDbLine
 10
814.766593903337
 20
-1382.482254699524
 11
898.766593903337
 21
-1382.482254699524
  0
LINE
  5
127
100
AcDbEntity
  8
1
  6
CONTINUOUS
 62
           7
100
AcDbLine
 10
815.266593903337
 20
-1381.982254699524
 11
898.266593903337
 21
-1381.982254699524
  0
LINE
  5
126
100
AcDbEntity
  8
1
  6
CONTINUOUS
 62
           7
100
AcDbLine
 10
814.766593903337
 20
-1402.346254699524
 11
814.766593903337
 21
-1401.346254699524
  0
LINE
  5
125
100
AcDbEntity
  8
1
  6
CONTINUOUS
 62
           7
100
AcDbLine
 10
893.016593903337
 20
-1366.482254699524
 11
892.516593903337
 21
-1365.982254699524
  0
LINE
  5
124
100
AcDbEntity
  8
1
  6
CONTINUOUS
 62
           7
100
AcDbLine
 10
885.016593903337
 20
-1365.982254699524
 11
884.516593903337
 21
-1366.482254699524
  0
LINE
  5
123
100
AcDbEntity
  8
1
  6
CONTINUOUS
 62
           7
100
AcDbLine
 10
893.016593903337
 20
-1366.482254699524
 11
893.016593903337
 21
-1370.982254699524
  0
LINE
  5
122
100
AcDbEntity
  8
1
  6
CONTINUOUS
 62
           7
100
AcDbLine
 10
884.516593903337
 20
-1370.982254699524
 11
884.516593903337
 21
-1366.482254699524
  0
LINE
  5
121
100
AcDbEntity
  8
1
  6
CONTINUOUS
 62
           7
100
AcDbLine
 10
885.016593903337
 20
-1365.982254699524
 11
892.516593903337
 21
-1365.982254699524
  0
LINE
  5
120
100
AcDbEntity
  8
1
  6
CONTINUOUS
 62
           7
100
AcDbLine
 10
884.516593903337
 20
-1366.482254699524
 11
893.016593903337
 21
-1366.482254699524
  0
LINE
  5
11F
100
AcDbEntity
  8
1
  6
CONTINUOUS
 62
           7
100
AcDbLine
 10
820.516593903337
 20
-1366.482254699524
 11
829.016593903337
 21
-1366.482254699524
  0
LINE
  5
11E
100
AcDbEntity
  8
1
  6
CONTINUOUS
 62
           7
100
AcDbLine
 10
821.016593903337
 20
-1365.982254699524
 11
828.516593903337
 21
-1365.982254699524
  0
LINE
  5
11D
100
AcDbEntity
  8
1
  6
CONTINUOUS
 62
           7
100
AcDbLine
 10
829.016593903337
 20
-1366.482254699524
 11
829.016593903337
 21
-1370.982254699524
  0
LINE
  5
11C
100
AcDbEntity
  8
1
  6
CONTINUOUS
 62
           7
100
AcDbLine
 10
820.516593903337
 20
-1370.982254699524
 11
820.516593903337
 21
-1366.482254699524
  0
LINE
  5
11B
100
AcDbEntity
  8
1
  6
CONTINUOUS
 62
           7
100
AcDbLine
 10
829.016593903337
 20
-1366.482254699524
 11
828.516593903337
 21
-1365.982254699524
  0
LINE
  5
11A
100
AcDbEntity
  8
1
  6
CONTINUOUS
 62
           7
100
AcDbLine
 10
821.016593903337
 20
-1365.982254699524
 11
820.516593903337
 21
-1366.482254699524
  0
LINE
  5
119
100
AcDbEntity
  8
1
  6
CONTINUOUS
 62
           7
100
AcDbLine
 10
898.766593903337
 20
-1370.982254699524
 11
814.766593903337
 21
-1370.982254699524
  0
LINE
  5
118
100
AcDbEntity
  8
1
  6
CONTINUOUS
 62
           7
100
AcDbLine
 10
898.266593903337
 20
-1403.982254699524
 11
898.766593903337
 21
-1403.482254699524
  0
LINE
  5
117
100
AcDbEntity
  8
1
  6
CONTINUOUS
 62
           7
100
AcDbLine
 10
898.766593903337
 20
-1403.482254699524
 11
898.766593903337
 21
-1392.199254699524
  0
LINE
  5
116
100
AcDbEntity
  8
1
  6
CONTINUOUS
 62
           7
100
AcDbLine
 10
898.766593903337
 20
-1401.346254699524
 11
898.766593903337
 21
-1402.346254699524
  0
LINE
  5
115
100
AcDbEntity
  8
1
  6
CONTINUOUS
 62
           7
100
AcDbLine
 10
898.766593903337
 20
-1391.618254699524
 11
898.766593903337
 21
-1390.618254699524
  0
LINE
  5
114
100
AcDbEntity
  8
1
  6
CONTINUOUS
 62
           7
100
AcDbLine
 10
898.766593903337
 20
-1391.618254699524
 11
898.766593903337
 21
-1396.482254699524
  0
LINE
  5
113
100
AcDbEntity
  8
1
  6
CONTINUOUS
 62
           7
100
AcDbLine
 10
898.766593903337
 20
-1396.482254699524
 11
898.766593903337
 21
-1401.346254699524
  0
LINE
  5
112
100
AcDbEntity
  8
1
  6
CONTINUOUS
 62
           7
100
AcDbLine
 10
898.766593903337
 20
-1384.482254699524
 11
898.266593903337
 21
-1383.982254699524
  0
LINE
  5
111
100
AcDbEntity
  8
1
  6
CONTINUOUS
 62
           7
100
AcDbLine
 10
898.266593903337
 20
-1381.982254699524
 11
898.766593903337
 21
-1381.482254699524
  0
LINE
  5
110
100
AcDbEntity
  8
1
  6
CONTINUOUS
 62
           7
100
AcDbLine
 10
898.766593903337
 20
-1370.982254699524
 11
898.766593903337
 21
-1381.482254699524
  0
LINE
  5
10F
100
AcDbEntity
  8
1
  6
CONTINUOUS
 62
           7
100
AcDbLine
 10
898.766593903337
 20
-1392.199254699524
 11
898.766593903337
 21
-1384.482254699524
  0
LINE
  5
10E
100
AcDbEntity
  8
1
  6
CONTINUOUS
 62
           7
100
AcDbLine
 10
814.766593903337
 20
-1381.482254699524
 11
814.766593903337
 21
-1370.982254699524
  0
LINE
  5
10D
100
AcDbEntity
  8
1
  6
CONTINUOUS
 62
           7
100
AcDbLine
 10
814.766593903337
 20
-1381.482254699524
 11
815.266593903337
 21
-1381.982254699524
  0
LINE
  5
10C
100
AcDbEntity
  8
1
  6
CONTINUOUS
 62
           7
100
AcDbLine
 10
814.766593903337
 20
-1391.618254699524
 11
814.766593903337
 21
-1392.199254699524
  0
LINE
  5
10B
100
AcDbEntity
  8
1
  6
CONTINUOUS
 62
           7
100
AcDbLine
 10
815.266593903337
 20
-1383.982254699524
 11
814.766593903337
 21
-1384.482254699524
  0
LINE
  5
10A
100
AcDbEntity
  8
1
  6
CONTINUOUS
 62
           7
100
AcDbLine
 10
814.766593903337
 20
-1401.346254699524
 11
814.766593903337
 21
-1396.482254699524
  0
LINE
  5
109
100
AcDbEntity
  8
1
  6
CONTINUOUS
 62
           7
100
AcDbLine
 10
814.766593903337
 20
-1396.482254699524
 11
814.766593903337
 21
-1391.618254699524
  0
LINE
  5
108
100
AcDbEntity
  8
1
  6
CONTINUOUS
 62
           7
100
AcDbLine
 10
814.766593903337
 20
-1402.346254699524
 11
814.766593903337
 21
-1401.346254699524
  0
LINE
  5
107
100
AcDbEntity
  8
1
  6
CONTINUOUS
 62
           7
100
AcDbLine
 10
814.766593903337
 20
-1401.346254699524
 11
814.766593903337
 21
-1403.482254699524
  0
LINE
  5
106
100
AcDbEntity
  8
1
  6
CONTINUOUS
 62
           7
100
AcDbLine
 10
814.766593903337
 20
-1403.482254699524
 11
815.266593903337
 21
-1403.982254699524
  0
LINE
  5
105
100
AcDbEntity
  8
1
  6
CONTINUOUS
 62
           7
100
AcDbLine
 10
814.766593903337
 20
-1396.482254699524
 11
814.766593903337
 21
-1391.618254699524
  0
LINE
  5
104
100
AcDbEntity
  8
1
  6
CONTINUOUS
 62
           7
100
AcDbLine
 10
814.766593903337
 20
-1401.346254699524
 11
814.766593903337
 21
-1396.482254699524
  0
LINE
  5
103
100
AcDbEntity
  8
1
  6
CONTINUOUS
 62
           7
100
AcDbLine
 10
814.766593903337
 20
-1384.482254699524
 11
814.766593903337
 21
-1391.618254699524
  0
LINE
  5
102
100
AcDbEntity
  8
1
  6
CONTINUOUS
 62
           7
100
AcDbLine
 10
814.766593903337
 20
-1392.199254699524
 11
814.766593903337
 21
-1401.346254699524
  0
LINE
  5
101
100
AcDbEntity
  8
1
  6
CONTINUOUS
 62
           7
100
AcDbLine
 10
898.766593903337
 20
-1382.482254699524
 11
898.766593903337
 21
-1383.482254699524
  0
LINE
  5
100
100
AcDbEntity
  8
1
  6
CONTINUOUS
 62
           7
100
AcDbLine
 10
814.766593903337
 20
-1383.482254699524
 11
814.766593903337
 21
-1382.482254699524
  0
LINE
  5
FF
100
AcDbEntity
  8
1
  6
CONTINUOUS
 62
           7
100
AcDbLine
 10
814.766593903337
 20
-1422.982254699524
 11
814.766593903337
 21
-1408.982254699524
  0
LINE
  5
FE
100
AcDbEntity
  8
1
  6
CONTINUOUS
 62
           7
100
AcDbLine
 10
814.766593903337
 20
-1427.982254699525
 11
814.766593903337
 21
-1422.982254699524
  0
LINE
  5
FD
100
AcDbEntity
  8
1
  6
CONTINUOUS
 62
           7
100
AcDbLine
 10
847.578593903337
 20
-1437.982254699524
 11
856.766593903337
 21
-1437.982254699524
  0
LINE
  5
FC
100
AcDbEntity
  8
1
  6
CONTINUOUS
 62
           7
100
AcDbLine
 10
843.266593903337
 20
-1437.982254699524
 11
847.578593903337
 21
-1437.982254699524
  0
LINE
  5
FB
100
AcDbEntity
  8
1
  6
CONTINUOUS
 62
           7
100
AcDbLine
 10
842.766593903337
 20
-1437.482254699524
 11
842.766593903337
 21
-1428.482254699524
  0
LINE
  5
FA
100
AcDbEntity
  8
1
  6
CONTINUOUS
 62
           7
100
AcDbLine
 10
815.266593903337
 20
-1428.482254699524
 11
842.766593903337
 21
-1428.482254699524
  0
LINE
  5
F9
100
AcDbEntity
  8
1
  6
CONTINUOUS
 62
           7
100
AcDbLine
 10
814.766593903337
 20
-1408.982254699524
 11
814.766593903337
 21
-1405.982254699524
  0
LINE
  5
F8
100
AcDbEntity
  8
1
  6
CONTINUOUS
 62
           7
100
AcDbLine
 10
815.266593903337
 20
-1405.482254699524
 11
856.766593903337
 21
-1405.482254699524
  0
LINE
  5
F7
100
AcDbEntity
  8
1
  6
CONTINUOUS
 62
           7
100
AcDbLine
 10
856.766593903337
 20
-1414.98225469952
 11
815.974437794596
 21
-1414.98225469952
  0
LINE
  5
F6
100
AcDbEntity
  8
1
  6
CONTINUOUS
 62
           7
100
AcDbLine
 10
814.766593903337
 20
-1406.482254699524
 11
815.974437794596
 21
-1406.482254699524
  0
LINE
  5
F5
100
AcDbEntity
  8
1
  6
CONTINUOUS
 62
           7
100
AcDbLine
 10
815.974437794596
 20
-1406.482254699524
 11
815.974437794596
 21
-1414.98225469952
  0
LINE
  5
F4
100
AcDbEntity
  8
976
  6
CONTINUOUS
 62
           7
100
AcDbLine
 10
846.410436314733
 20
-1421.982254699524
 11
856.766593903337
 21
-1421.982254699524
  0
LINE
  5
F3
100
AcDbEntity
  8
976
  6
CONTINUOUS
 62
           7
100
AcDbLine
 10
856.766593903337
 20
-1421.982254699524
 11
867.122751491941
 21
-1421.982254699524
  0
LINE
  5
F2
100
AcDbEntity
  8
1
  6
CONTINUOUS
 62
           7
100
AcDbLine
 10
897.558750012078
 20
-1414.98225469952
 11
897.558750012078
 21
-1406.482254699524
  0
LINE
  5
F1
100
AcDbEntity
  8
1
  6
CONTINUOUS
 62
           7
100
AcDbLine
 10
897.558750012078
 20
-1406.482254699524
 11
898.766593903337
 21
-1406.482254699524
  0
LINE
  5
F0
100
AcDbEntity
  8
1
  6
CONTINUOUS
 62
           7
100
AcDbLine
 10
897.558750012078
 20
-1414.98225469952
 11
856.766593903337
 21
-1414.98225469952
  0
LINE
  5
EF
100
AcDbEntity
  8
1
  6
CONTINUOUS
 62
           7
100
AcDbLine
 10
856.766593903337
 20
-1405.482254699524
 11
898.266593903337
 21
-1405.482254699524
  0
LINE
  5
EE
100
AcDbEntity
  8
1
  6
CONTINUOUS
 62
           7
100
AcDbLine
 10
898.766593903337
 20
-1405.982254699524
 11
898.766593903337
 21
-1408.982254699524
  0
LINE
  5
ED
100
AcDbEntity
  8
1
  6
CONTINUOUS
 62
           7
100
AcDbLine
 10
870.766593903337
 20
-1428.482254699524
 11
898.266593903337
 21
-1428.482254699524
  0
LINE
  5
EC
100
AcDbEntity
  8
1
  6
CONTINUOUS
 62
           7
100
AcDbLine
 10
870.766593903337
 20
-1428.482254699524
 11
870.766593903337
 21
-1437.482254699524
  0
LINE
  5
EB
100
AcDbEntity
  8
1
  6
CONTINUOUS
 62
           7
100
AcDbLine
 10
865.954593903337
 20
-1437.982254699524
 11
870.266593903337
 21
-1437.982254699524
  0
LINE
  5
EA
100
AcDbEntity
  8
1
  6
CONTINUOUS
 62
           7
100
AcDbLine
 10
856.766593903337
 20
-1437.982254699524
 11
865.954593903337
 21
-1437.982254699524
  0
LINE
  5
E9
100
AcDbEntity
  8
1
  6
CONTINUOUS
 62
           7
100
AcDbLine
 10
898.766593903337
 20
-1422.982254699524
 11
898.766593903337
 21
-1427.982254699525
  0
LINE
  5
E8
100
AcDbEntity
  8
1
  6
CONTINUOUS
 62
           7
100
AcDbLine
 10
898.766593903337
 20
-1408.982254699524
 11
898.766593903337
 21
-1422.982254699524
  0
LINE
  5
E7
100
AcDbEntity
  8
1
  6
CONTINUOUS
 62
           7
100
AcDbLine
 10
814.766593903337
 20
-1404.982254699524
 11
898.766593903337
 21
-1404.982254699524
  0
LINE
  5
E6
100
AcDbEntity
  8
1
  6
CONTINUOUS
 62
           7
100
AcDbLine
 10
814.766593903337
 20
-1403.982254699524
 11
898.766593903337
 21
-1403.982254699524
  0
LINE
  5
E5
100
AcDbEntity
  8
1
  6
CONTINUOUS
 62
           7
100
AcDbLine
 10
814.766593903337
 20
-1404.982254699524
 11
814.766593903337
 21
-1403.982254699524
  0
LINE
  5
E4
100
AcDbEntity
  8
1
  6
CONTINUOUS
 62
           7
100
AcDbLine
 10
898.766593903337
 20
-1403.982254699524
 11
898.766593903337
 21
-1404.982254699524
  0
LINE
  5
E3
100
AcDbEntity
  8
1
  6
CONTINUOUS
 62
           7
100
AcDbLine
 10
863.694797133613
 20
-1438.982254699524
 11
863.694797133613
 21
-1441.982254699524
  0
LINE
  5
E2
100
AcDbEntity
  8
1
  6
CONTINUOUS
 62
           7
100
AcDbLine
 10
849.838390673062
 20
-1438.982254699524
 11
849.838390673062
 21
-1441.982254699524
  0
LINE
  5
E1
100
AcDbEntity
  8
1
  6
CONTINUOUS
 62
           7
100
AcDbLine
 10
867.15889874875
 20
-1437.982254699524
 11
865.954593903337
 21
-1437.982254699522
  0
LINE
  5
E0
100
AcDbEntity
  8
1
  6
CONTINUOUS
 62
           7
100
AcDbLine
 10
870.623000363888
 20
-1441.982254699524
 11
870.623000363888
 21
-1438.982254699524
  0
LINE
  5
DF
100
AcDbEntity
  8
1
  6
CONTINUOUS
 62
           7
100
AcDbLine
 10
842.910187442786
 20
-1438.982254699524
 11
842.910187442786
 21
-1441.982254699524
  0
LINE
  5
DE
100
AcDbEntity
  8
1
  6
CONTINUOUS
 62
           7
100
AcDbLine
 10
846.374289057924
 20
-1442.982254699524
 11
847.578593903337
 21
-1442.982254699522
  0
LINE
  5
DD
100
AcDbEntity
  8
1
  6
CONTINUOUS
 62
           7
100
AcDbLine
 10
865.954593903337
 20
-1437.982254699522
 11
847.578593903337
 21
-1437.982254699522
  0
LINE
  5
DC
100
AcDbEntity
  8
1
  6
CONTINUOUS
 62
           7
100
AcDbLine
 10
847.578593903337
 20
-1437.982254699522
 11
846.374289057924
 21
-1437.982254699524
  0
LINE
  5
DB
100
AcDbEntity
  8
1
  6
CONTINUOUS
 62
           7
100
AcDbLine
 10
865.954593903337
 20
-1442.982254699522
 11
867.15889874875
 21
-1442.982254699524
  0
LINE
  5
DA
100
AcDbEntity
  8
1
  6
CONTINUOUS
 62
           7
100
AcDbLine
 10
847.578593903337
 20
-1442.982254699522
 11
865.954593903337
 21
-1442.982254699522
  0
LINE
  5
D9
100
AcDbEntity
  8
1
  6
CONTINUOUS
 62
           7
100
AcDbLine
 10
847.578593903337
 20
-1444.982254699522
 11
865.954593903337
 21
-1444.982254699522
  0
LINE
  5
D8
100
AcDbEntity
  8
1
  6
CONTINUOUS
 62
           7
100
AcDbLine
 10
849.291593903337
 20
-1451.982254699523
 11
864.241593903337
 21
-1451.982254699523
  0
LINE
  5
D7
100
AcDbEntity
  8
1
  6
CONTINUOUS
 62
           7
100
AcDbLine
 10
849.291593903337
 20
-1454.982254699523
 11
864.241593903337
 21
-1454.982254699523
  0
LINE
  5
D6
100
AcDbEntity
  8
1
  6
CONTINUOUS
 62
           7
100
AcDbLine
 10
845.266593903337
 20
-1445.671800977611
 11
845.266593903337
 21
-1451.292708421435
  0
LINE
  5
D5
100
AcDbEntity
  8
1
  6
CONTINUOUS
 62
           7
100
AcDbLine
 10
868.266593903337
 20
-1445.67180097761
 11
868.266593903337
 21
-1451.292708421435
  0
LINE
  5
D4
100
AcDbEntity
  8
1
  6
CONTINUOUS
 62
           7
100
AcDbLine
 10
865.954593903337
 20
-1442.982254699522
 11
865.954593903337
 21
-1444.982254699522
  0
LINE
  5
D3
100
AcDbEntity
  8
1
  6
CONTINUOUS
 62
           7
100
AcDbLine
 10
862.516593903337
 20
-1463.982254699523
 11
851.016593903337
 21
-1463.982254699523
  0
LINE
  5
D2
100
AcDbEntity
  8
1
  6
CONTINUOUS
 62
           7
100
AcDbLine
 10
851.016593903337
 20
-1463.982254699523
 11
849.235593903337
 21
-1463.982254699523
  0
LINE
  5
D1
100
AcDbEntity
  8
1
  6
CONTINUOUS
 62
           7
100
AcDbLine
 10
864.297593903337
 20
-1463.982254699523
 11
865.097593903337
 21
-1463.182254699523
  0
LINE
  5
D0
100
AcDbEntity
  8
1
  6
CONTINUOUS
 62
           7
100
AcDbLine
 10
849.235593903337
 20
-1463.982254699523
 11
848.435593903337
 21
-1463.182254699523
  0
LINE
  5
CF
100
AcDbEntity
  8
1
  6
CONTINUOUS
 62
           7
100
AcDbLine
 10
846.653345249285
 20
-1451.982254699523
 11
845.266593903337
 21
-1451.292708421435
  0
LINE
  5
CE
100
AcDbEntity
  8
1
  6
CONTINUOUS
 62
           7
100
AcDbLine
 10
846.653345249285
 20
-1444.982254699522
 11
845.266593903337
 21
-1445.671800977611
  0
LINE
  5
CD
100
AcDbEntity
  8
1
  6
CONTINUOUS
 62
           7
100
AcDbLine
 10
866.879842557389
 20
-1451.982254699523
 11
868.266593903337
 21
-1451.292708421435
  0
LINE
  5
CC
100
AcDbEntity
  8
1
  6
CONTINUOUS
 62
           7
100
AcDbLine
 10
866.879842557389
 20
-1444.982254699522
 11
868.266593903337
 21
-1445.67180097761
  0
LINE
  5
CB
100
AcDbEntity
  8
1
  6
CONTINUOUS
 62
           7
100
AcDbLine
 10
847.578593903337
 20
-1444.982254699522
 11
847.578593903337
 21
-1442.982254699522
  0
LINE
  5
CA
100
AcDbEntity
  8
1
  6
CONTINUOUS
 62
           7
100
AcDbLine
 10
865.954593903337
 20
-1444.982254699522
 11
866.879842557389
 21
-1444.982254699522
  0
LINE
  5
C9
100
AcDbEntity
  8
1
  6
CONTINUOUS
 62
           2
100
AcDbLine
 10
864.241593903337
 20
-1454.982254699523
 11
864.241593903337
 21
-1463.982254699523
  0
LINE
  5
C8
100
AcDbEntity
  8
1
  6
CONTINUOUS
 62
           7
100
AcDbLine
 10
864.297593903337
 20
-1463.982254699523
 11
862.516593903337
 21
-1463.982254699523
  0
LINE
  5
C7
100
AcDbEntity
  8
1
  6
CONTINUOUS
 62
           7
100
AcDbLine
 10
865.097593903337
 20
-1454.982254699523
 11
865.097593903337
 21
-1463.182254699523
  0
LINE
  5
C6
100
AcDbEntity
  8
1
  6
CONTINUOUS
 62
           7
100
AcDbLine
 10
864.241593903337
 20
-1454.982254699523
 11
865.097593903337
 21
-1454.982254699523
  0
LINE
  5
C5
100
AcDbEntity
  8
1
  6
CONTINUOUS
 62
           7
100
AcDbLine
 10
864.241593903337
 20
-1451.982254699523
 11
864.241593903337
 21
-1454.982254699523
  0
LINE
  5
C4
100
AcDbEntity
  8
1
  6
CONTINUOUS
 62
           7
100
AcDbLine
 10
849.291593903337
 20
-1451.982254699523
 11
846.653345249285
 21
-1451.982254699523
  0
LINE
  5
C3
100
AcDbEntity
  8
1
  6
CONTINUOUS
 62
           7
100
AcDbLine
 10
849.291593903337
 20
-1454.982254699523
 11
849.291593903337
 21
-1451.982254699523
  0
LINE
  5
C2
100
AcDbEntity
  8
1
  6
CONTINUOUS
 62
           7
100
AcDbLine
 10
848.435593903337
 20
-1454.982254699523
 11
849.291593903337
 21
-1454.982254699523
  0
LINE
  5
C1
100
AcDbEntity
  8
1
  6
CONTINUOUS
 62
           7
100
AcDbLine
 10
848.435593903337
 20
-1463.182254699523
 11
848.435593903337
 21
-1454.982254699523
  0
LINE
  5
C0
100
AcDbEntity
  8
1
  6
CONTINUOUS
 62
           2
100
AcDbLine
 10
849.291593903337
 20
-1463.982254699523
 11
849.291593903337
 21
-1454.982254699523
  0
LINE
  5
BF
100
AcDbEntity
  8
1
  6
CONTINUOUS
 62
           7
100
AcDbLine
 10
846.653345249285
 20
-1444.982254699522
 11
847.578593903337
 21
-1444.982254699522
  0
LINE
  5
BE
100
AcDbEntity
  8
1
  6
CONTINUOUS
 62
           7
100
AcDbLine
 10
866.879842557389
 20
-1451.982254699523
 11
864.241593903337
 21
-1451.982254699523
  0
LINE
  5
BD
100
AcDbEntity
  8
1
  6
CONTINUOUS
 62
           7
100
AcDbLine
 10
901.767081826919
 20
-1245.633732717452
 11
901.767081826919
 21
-1235.696174023167
  0
LINE
  5
BC
100
AcDbEntity
  8
1
  6
CONTINUOUS
 62
           7
100
AcDbLine
 10
901.767081826919
 20
-1235.696174023167
 11
901.767081826919
 21
-1233.993000654476
  0
LINE
  5
BB
100
AcDbEntity
  8
1
  6
CONTINUOUS
 62
           7
100
AcDbLine
 10
898.776593903337
 20
-1247.24345337031
 11
898.250798748792
 21
-1247.227022277318
  0
LINE
  5
BA
100
AcDbEntity
  8
1
  6
CONTINUOUS
 62
           2
100
AcDbLine
 10
898.776593903337
 20
-1234.94245337031
 11
898.376639369854
 21
-1234.954951945231
  0
LINE
  5
B9
100
AcDbEntity
  8
1
  6
CONTINUOUS
 62
           7
100
AcDbLine
 10
898.776593903337
 20
-1234.08645337031
 11
901.767081826919
 21
-1233.993000654476
  0
LINE
  5
B8
100
AcDbEntity
  8
1
  6
CONTINUOUS
 62
           7
100
AcDbLine
 10
902.766593903337
 20
-1234.961765912709
 11
902.766593903337
 21
-1246.368140827911
  0
LINE
  5
B7
100
AcDbEntity
  8
1
  6
CONTINUOUS
 62
           7
100
AcDbLine
 10
901.767081826919
 20
-1233.993000654476
 11
902.766593903337
 21
-1234.961765912709
  0
LINE
  5
B6
100
AcDbEntity
  8
1
  6
CONTINUOUS
 62
           7
100
AcDbLine
 10
901.767081826919
 20
-1247.336906086144
 11
902.766593903337
 21
-1246.368140827911
  0
LINE
  5
B5
100
AcDbEntity
  8
1
  6
CONTINUOUS
 62
           2
100
AcDbLine
 10
898.776593903337
 20
-1246.38745337031
 11
902.622664164333
 21
-1246.507643025097
  0
LINE
  5
B4
100
AcDbEntity
  8
1
  6
CONTINUOUS
 62
           7
100
AcDbLine
 10
898.250798748792
 20
-1234.102884463302
 11
898.776593903337
 21
-1234.08645337031
  0
LINE
  5
B3
100
AcDbEntity
  8
1
  6
CONTINUOUS
 62
           2
100
AcDbLine
 10
902.622664164333
 20
-1234.822263715523
 11
898.776593903337
 21
-1234.94245337031
  0
LINE
  5
B2
100
AcDbEntity
  8
1
  6
CONTINUOUS
 62
           2
100
AcDbLine
 10
898.376639369854
 20
-1246.374954795389
 11
898.776593903337
 21
-1246.38745337031
  0
LINE
  5
B1
100
AcDbEntity
  8
1
  6
CONTINUOUS
 62
           7
100
AcDbLine
 10
901.767081826919
 20
-1247.336906086144
 11
898.776593903337
 21
-1247.24345337031
  0
LINE
  5
B0
100
AcDbEntity
  8
1
  6
CONTINUOUS
 62
           7
100
AcDbLine
 10
901.767081826919
 20
-1247.336906086144
 11
901.767081826919
 21
-1245.633732717452
  0
LINE
  5
AF
100
AcDbEntity
  8
1
  6
CONTINUOUS
 62
           7
100
AcDbLine
 10
861.99544053368
 20
-1366.952254699525
 11
851.537747272986
 21
-1366.952254699525
  0
LINE
  5
AE
100
AcDbEntity
  8
1
  6
CONTINUOUS
 62
           7
100
AcDbLine
 10
861.99544053368
 20
-1354.952254699525
 11
851.537747272986
 21
-1354.952254699525
  0
LINE
  5
AD
100
AcDbEntity
  8
1
  6
CONTINUOUS
 62
           6
100
AcDbLine
 10
852.006329861511
 20
-1373.952863872499
 11
861.526857945156
 21
-1373.952863872499
  0
LINE
  5
AC
100
AcDbEntity
  8
1
  6
CONTINUOUS
 62
           6
100
AcDbLine
 10
852.607606469091
 20
-1374.53350994299
 11
852.483593903327
 21
-1370.982254699458
  0
LINE
  5
AB
100
AcDbEntity
  8
1
  6
CONTINUOUS
 62
           6
100
AcDbLine
 10
860.925581337561
 20
-1374.533509943005
 11
861.049593903333
 21
-1370.982254699524
  0
LINE
  5
AA
100
AcDbEntity
  8
1
  6
CONTINUOUS
 62
           6
100
AcDbLine
 10
860.491958448443
 20
-1374.952254699525
 11
861.526857945156
 21
-1373.952863872499
  0
LINE
  5
A9
100
AcDbEntity
  8
1
  6
CONTINUOUS
 62
           6
100
AcDbLine
 10
853.041229358217
 20
-1374.952254699525
 11
852.006329861511
 21
-1373.952863872499
  0
LINE
  5
A8
100
AcDbEntity
  8
1
  6
CONTINUOUS
 62
           7
100
AcDbLine
 10
861.717895827057
 20
-1368.482254699524
 11
851.815291979595
 21
-1368.482254699524
  0
LINE
  5
A7
100
AcDbEntity
  8
1
  6
CONTINUOUS
 62
           7
100
AcDbLine
 10
861.630593903331
 20
-1370.982254699444
 11
861.771324604383
 21
-1366.952254699525
  0
LINE
  5
A6
100
AcDbEntity
  8
1
  6
CONTINUOUS
 62
           2
100
AcDbLine
 10
861.049593903333
 20
-1370.982254699524
 11
861.136895827066
 21
-1368.482254699524
  0
LINE
  5
A5
100
AcDbEntity
  8
1
  6
CONTINUOUS
 62
           2
100
AcDbLine
 10
852.483593903327
 20
-1370.982254699458
 11
852.396291979601
 21
-1368.482254699524
  0
LINE
  5
A4
100
AcDbEntity
  8
1
  6
CONTINUOUS
 62
           7
100
AcDbLine
 10
851.902593903321
 20
-1370.982254699538
 11
851.761863202276
 21
-1366.952254699525
  0
LINE
  5
A3
100
AcDbEntity
  8
1
  6
CONTINUOUS
 62
           6
100
AcDbLine
 10
853.041229358217
 20
-1374.952254699525
 11
860.491958448443
 21
-1374.952254699525
  0
LINE
  5
A2
100
AcDbEntity
  8
1
  6
CONTINUOUS
 62
           2
100
AcDbLine
 10
861.136895827066
 20
-1368.482254699524
 11
861.771324604383
 21
-1366.952254699525
  0
LINE
  5
A1
100
AcDbEntity
  8
1
  6
CONTINUOUS
 62
           6
100
AcDbLine
 10
861.526857945156
 20
-1373.952863872499
 11
861.630593903331
 21
-1370.982254699444
  0
LINE
  5
A0
100
AcDbEntity
  8
1
  6
CONTINUOUS
 62
           2
100
AcDbLine
 10
852.396291979601
 20
-1368.482254699524
 11
851.761863202276
 21
-1366.952254699525
  0
LINE
  5
9F
100
AcDbEntity
  8
1
  6
CONTINUOUS
 62
           6
100
AcDbLine
 10
852.006329861511
 20
-1373.952863872499
 11
851.902593903321
 21
-1370.982254699538
  0
LINE
  5
9E
100
AcDbEntity
  8
1
  6
CONTINUOUS
 62
           7
100
AcDbLine
 10
861.482480528034
 20
-1354.952254699525
 11
861.482480528034
 21
-1353.952254699525
  0
LINE
  5
9D
100
AcDbEntity
  8
1
  6
CONTINUOUS
 62
           7
100
AcDbLine
 10
852.050707278647
 20
-1354.952254699525
 11
852.050707278647
 21
-1353.952254699525
  0
LINE
  5
9C
100
AcDbEntity
  8
1
  6
CONTINUOUS
 62
           7
100
AcDbLine
 10
862.874537215697
 20
-1353.952254699525
 11
850.65865059097
 21
-1353.952254699525
  0
LINE
  5
9B
100
AcDbEntity
  8
1
  6
CONTINUOUS
 62
           7
100
AcDbLine
 10
861.874537215697
 20
-1351.952254699525
 11
851.65865059097
 21
-1351.952254699525
  0
LINE
  5
9A
100
AcDbEntity
  8
1
  6
CONTINUOUS
 62
           7
100
AcDbLine
 10
862.874537215697
 20
-1352.952254699525
 11
862.874537215697
 21
-1353.952254699525
  0
LINE
  5
99
100
AcDbEntity
  8
1
  6
CONTINUOUS
 62
           7
100
AcDbLine
 10
850.65865059097
 20
-1352.952254699525
 11
850.65865059097
 21
-1353.952254699525
  0
LINE
  5
98
100
AcDbEntity
  8
1
  6
CONTINUOUS
 62
           7
100
AcDbLine
 10
852.820441480636
 20
-1365.952254699525
 11
854.266593903337
 21
-1365.952254699525
  0
LINE
  5
97
100
AcDbEntity
  8
1
  6
CONTINUOUS
 62
           7
100
AcDbLine
 10
859.266593903337
 20
-1365.952254699525
 11
860.712746326045
 21
-1365.952254699525
  0
LINE
  5
96
100
AcDbEntity
  8
1
  6
CONTINUOUS
 62
           7
100
AcDbLine
 10
859.266593903337
 20
-1355.952254699525
 11
860.712746326045
 21
-1355.952254699525
  0
LINE
  5
95
100
AcDbEntity
  8
1
  6
CONTINUOUS
 62
           7
100
AcDbLine
 10
852.820441480636
 20
-1355.952254699525
 11
854.266593903337
 21
-1355.952254699525
  0
LINE
  5
94
100
AcDbEntity
  8
1
  6
CONTINUOUS
 62
           7
100
AcDbLine
 10
850.266593903337
 20
-1365.952254699525
 11
850.266593903337
 21
-1355.952254699525
  0
LINE
  5
93
100
AcDbEntity
  8
1
  6
CONTINUOUS
 62
           7
100
AcDbLine
 10
852.820441480636
 20
-1365.952254699525
 11
852.820441480636
 21
-1355.952254699525
  0
LINE
  5
92
100
AcDbEntity
  8
1
  6
CONTINUOUS
 62
           7
100
AcDbLine
 10
854.266593903337
 20
-1355.952254699525
 11
854.266593903337
 21
-1365.952254699525
  0
LINE
  5
91
100
AcDbEntity
  8
1
  6
CONTINUOUS
 62
           7
100
AcDbLine
 10
859.266593903337
 20
-1365.952254699525
 11
859.266593903337
 21
-1355.952254699525
  0
LINE
  5
90
100
AcDbEntity
  8
1
  6
CONTINUOUS
 62
           7
100
AcDbLine
 10
860.712746326045
 20
-1355.952254699525
 11
860.712746326045
 21
-1365.952254699525
  0
LINE
  5
8F
100
AcDbEntity
  8
1
  6
CONTINUOUS
 62
           7
100
AcDbLine
 10
863.266593903337
 20
-1365.952254699525
 11
863.266593903337
 21
-1355.952254699525
  0
LINE
  5
8E
100
AcDbEntity
  8
1
  6
CONTINUOUS
 62
           7
100
AcDbLine
 10
888.809533843352
 20
-1224.474354447061
 11
890.809533843352
 21
-1223.319653908682
  0
LINE
  5
8D
100
AcDbEntity
  8
1
  6
CONTINUOUS
 62
           7
100
AcDbLine
 10
890.809533843352
 20
-1223.319653908682
 11
890.809533843352
 21
-1221.010252831924
  0
LINE
  5
8C
100
AcDbEntity
  8
1
  6
CONTINUOUS
 62
           7
100
AcDbLine
 10
890.809533843352
 20
-1221.010252831924
 11
888.809533843352
 21
-1219.855552293544
  0
LINE
  5
8B
100
AcDbEntity
  8
1
  6
CONTINUOUS
 62
           7
100
AcDbLine
 10
888.809533843352
 20
-1219.855552293544
 11
886.809533843352
 21
-1221.010252831924
  0
LINE
  5
8A
100
AcDbEntity
  8
1
  6
CONTINUOUS
 62
           7
100
AcDbLine
 10
886.809533843352
 20
-1221.010252831924
 11
886.809533843352
 21
-1223.319653908682
  0
LINE
  5
89
100
AcDbEntity
  8
1
  6
CONTINUOUS
 62
           7
100
AcDbLine
 10
886.809533843352
 20
-1223.319653908682
 11
888.809533843352
 21
-1224.474354447061
  0
LINE
  5
88
100
AcDbEntity
  8
1
  6
CONTINUOUS
 62
           7
100
AcDbLine
 10
888.809533843352
 20
-1261.474354447061
 11
890.809533843352
 21
-1260.319653908682
  0
LINE
  5
87
100
AcDbEntity
  8
1
  6
CONTINUOUS
 62
           7
100
AcDbLine
 10
890.809533843352
 20
-1260.319653908682
 11
890.809533843352
 21
-1258.010252831923
  0
LINE
  5
86
100
AcDbEntity
  8
1
  6
CONTINUOUS
 62
           7
100
AcDbLine
 10
890.809533843352
 20
-1258.010252831923
 11
888.809533843352
 21
-1256.855552293544
  0
LINE
  5
85
100
AcDbEntity
  8
1
  6
CONTINUOUS
 62
           7
100
AcDbLine
 10
888.809533843352
 20
-1256.855552293544
 11
886.809533843352
 21
-1258.010252831923
  0
LINE
  5
84
100
AcDbEntity
  8
1
  6
CONTINUOUS
 62
           7
100
AcDbLine
 10
886.809533843352
 20
-1258.010252831923
 11
886.809533843352
 21
-1260.319653908682
  0
LINE
  5
83
100
AcDbEntity
  8
1
  6
CONTINUOUS
 62
           7
100
AcDbLine
 10
886.809533843352
 20
-1260.319653908682
 11
888.809533843352
 21
-1261.474354447061
  0
LINE
  5
82
100
AcDbEntity
  8
1
  6
CONTINUOUS
 62
           7
100
AcDbLine
 10
856.766593903346
 20
-1279.974354447061
 11
858.766593903346
 21
-1278.819653908682
  0
LINE
  5
81
100
AcDbEntity
  8
1
  6
CONTINUOUS
 62
           7
100
AcDbLine
 10
858.766593903346
 20
-1278.819653908682
 11
858.766593903346
 21
-1276.510252831924
  0
LINE
  5
80
100
AcDbEntity
  8
1
  6
CONTINUOUS
 62
           7
100
AcDbLine
 10
858.766593903346
 20
-1276.510252831924
 11
856.766593903346
 21
-1275.355552293544
  0
LINE
  5
7F
100
AcDbEntity
  8
1
  6
CONTINUOUS
 62
           7
100
AcDbLine
 10
856.766593903346
 20
-1275.355552293544
 11
854.766593903346
 21
-1276.510252831924
  0
LINE
  5
7E
100
AcDbEntity
  8
1
  6
CONTINUOUS
 62
           7
100
AcDbLine
 10
854.766593903346
 20
-1276.510252831924
 11
854.766593903346
 21
-1278.819653908682
  0
LINE
  5
7D
100
AcDbEntity
  8
1
  6
CONTINUOUS
 62
           7
100
AcDbLine
 10
854.766593903346
 20
-1278.819653908682
 11
856.766593903346
 21
-1279.974354447061
  0
LINE
  5
7C
100
AcDbEntity
  8
1
  6
CONTINUOUS
 62
           7
100
AcDbLine
 10
824.723653963322
 20
-1261.474354447061
 11
826.723653963322
 21
-1260.319653908682
  0
LINE
  5
7B
100
AcDbEntity
  8
1
  6
CONTINUOUS
 62
           7
100
AcDbLine
 10
826.723653963322
 20
-1260.319653908682
 11
826.723653963322
 21
-1258.010252831923
  0
LINE
  5
7A
100
AcDbEntity
  8
1
  6
CONTINUOUS
 62
           7
100
AcDbLine
 10
826.723653963322
 20
-1258.010252831923
 11
824.723653963322
 21
-1256.855552293544
  0
LINE
  5
79
100
AcDbEntity
  8
1
  6
CONTINUOUS
 62
           7
100
AcDbLine
 10
824.723653963322
 20
-1256.855552293544
 11
822.723653963322
 21
-1258.010252831923
  0
LINE
  5
78
100
AcDbEntity
  8
1
  6
CONTINUOUS
 62
           7
100
AcDbLine
 10
822.723653963322
 20
-1258.010252831923
 11
822.723653963322
 21
-1260.319653908682
  0
LINE
  5
77
100
AcDbEntity
  8
1
  6
CONTINUOUS
 62
           7
100
AcDbLine
 10
822.723653963322
 20
-1260.319653908682
 11
824.723653963322
 21
-1261.474354447061
  0
LINE
  5
76
100
AcDbEntity
  8
1
  6
CONTINUOUS
 62
           7
100
AcDbLine
 10
824.723653963322
 20
-1224.474354447061
 11
826.723653963322
 21
-1223.319653908682
  0
LINE
  5
75
100
AcDbEntity
  8
1
  6
CONTINUOUS
 62
           7
100
AcDbLine
 10
826.723653963322
 20
-1223.319653908682
 11
826.723653963322
 21
-1221.010252831924
  0
LINE
  5
74
100
AcDbEntity
  8
1
  6
CONTINUOUS
 62
           7
100
AcDbLine
 10
826.723653963322
 20
-1221.010252831924
 11
824.723653963322
 21
-1219.855552293544
  0
LINE
  5
73
100
AcDbEntity
  8
1
  6
CONTINUOUS
 62
           7
100
AcDbLine
 10
824.723653963322
 20
-1219.855552293544
 11
822.723653963322
 21
-1221.010252831924
  0
LINE
  5
72
100
AcDbEntity
  8
1
  6
CONTINUOUS
 62
           7
100
AcDbLine
 10
822.723653963322
 20
-1221.010252831924
 11
822.723653963322
 21
-1223.319653908682
  0
LINE
  5
71
100
AcDbEntity
  8
1
  6
CONTINUOUS
 62
           7
100
AcDbLine
 10
822.723653963322
 20
-1223.319653908682
 11
824.723653963322
 21
-1224.474354447061
  0
LINE
  5
70
100
AcDbEntity
  8
1
  6
CONTINUOUS
 62
           7
100
AcDbLine
 10
856.766593903337
 20
-1205.974354447061
 11
858.766593903337
 21
-1204.819653908682
  0
LINE
  5
6F
100
AcDbEntity
  8
1
  6
CONTINUOUS
 62
           7
100
AcDbLine
 10
858.766593903337
 20
-1204.819653908682
 11
858.766593903337
 21
-1202.510252831924
  0
LINE
  5
6E
100
AcDbEntity
  8
1
  6
CONTINUOUS
 62
           7
100
AcDbLine
 10
858.766593903337
 20
-1202.510252831924
 11
856.766593903337
 21
-1201.355552293544
  0
LINE
  5
6D
100
AcDbEntity
  8
1
  6
CONTINUOUS
 62
           7
100
AcDbLine
 10
856.766593903337
 20
-1201.355552293544
 11
854.766593903337
 21
-1202.510252831924
  0
LINE
  5
6C
100
AcDbEntity
  8
1
  6
CONTINUOUS
 62
           7
100
AcDbLine
 10
854.766593903337
 20
-1202.510252831924
 11
854.766593903337
 21
-1204.819653908682
  0
LINE
  5
6B
100
AcDbEntity
  8
1
  6
CONTINUOUS
 62
           7
100
AcDbLine
 10
854.766593903337
 20
-1204.819653908682
 11
856.766593903337
 21
-1205.974354447061
  0
LINE
  5
6A
100
AcDbEntity
  8
1
  6
DOT_CENTER
 62
           2
100
AcDbLine
 10
885.003505433348
 20
-1256.967541843244
 11
892.507992765074
 21
-1261.300259624346
  0
LINE
  5
69
100
AcDbEntity
  8
1
  6
DOT_CENTER
 62
           2
100
AcDbLine
 10
885.003505433345
 20
-1224.362364897362
 11
892.507992765072
 21
-1220.029647116263
  0
LINE
  5
68
100
AcDbEntity
  8
1
  6
DOT_CENTER
 62
           2
100
AcDbLine
 10
852.986593903337
 20
-1203.664953370303
 11
860.546593903337
 21
-1203.664953370303
  0
LINE
  5
67
100
AcDbEntity
  8
1
  6
DOT_CENTER
 62
           2
100
AcDbLine
 10
821.025195041602
 20
-1220.029647116263
 11
828.529682373329
 21
-1224.362364897362
  0
LINE
  5
66
100
AcDbEntity
  8
1
  6
DOT_CENTER
 62
           2
100
AcDbLine
 10
821.0251950416
 20
-1261.300259624346
 11
828.529682373326
 21
-1256.967541843244
  0
LINE
  5
65
100
AcDbEntity
  8
1
  6
CONTINUOUS
 62
           2
100
AcDbLine
 10
848.066593903328
 20
-1246.684061154736
 11
848.066593903328
 21
-1247.590562496974
  0
LINE
  5
64
100
AcDbEntity
  8
1
  6
CONTINUOUS
 62
           2
100
AcDbLine
 10
848.066593903328
 20
-1251.747484435139
 11
848.066593903328
 21
-1252.653985777376
  0
LINE
  5
63
100
AcDbEntity
  8
1
  6
CONTINUOUS
 62
           2
100
AcDbLine
 10
853.166593903328
 20
-1246.684061154736
 11
853.166593903328
 21
-1247.590562496974
  0
LINE
  5
62
100
AcDbEntity
  8
1
  6
CONTINUOUS
 62
           2
100
AcDbLine
 10
853.166593903328
 20
-1251.747484435139
 11
853.166593903328
 21
-1252.653985777376
  0
LINE
  5
61
100
AcDbEntity
  8
1
  6
CONTINUOUS
 62
           2
100
AcDbLine
 10
850.815374753651
 20
-1249.219023466056
 11
852.566593903328
 21
-1249.219023466056
  0
LINE
  5
60
100
AcDbEntity
  8
1
  6
CONTINUOUS
 62
           2
100
AcDbLine
 10
850.815374753651
 20
-1250.119023466056
 11
852.566593903328
 21
-1250.119023466056
  0
LINE
  5
5F
100
AcDbEntity
  8
1
  6
CONTINUOUS
 62
           2
100
AcDbLine
 10
852.566593903328
 20
-1249.219023466056
 11
852.566593903328
 21
-1250.119023466056
  0
LINE
  5
5E
100
AcDbEntity
  8
1
  6
DOT_CENTER
 62
           2
100
AcDbLine
 10
810.130200460705
 20
-1240.664953370303
 11
905.716800949583
 21
-1240.664953370303
  0
LINE
  5
5D
100
AcDbEntity
  8
1
  6
DOT_CENTER
 62
           2
100
AcDbLine
 10
919.296593903337
 20
-1375.060055072503
 11
919.296593903337
 21
-1404.805417894743
  0
LINE
  5
5C
100
AcDbEntity
  8
1
  6
CONTINUOUS
 62
           7
100
AcDbLine
 10
912.296593903337
 20
-1386.707901880424
 11
912.852847323297
 21
-1386.707901880424
  0
LINE
  5
5B
100
AcDbEntity
  8
1
  6
CONTINUOUS
 62
           7
100
AcDbLine
 10
912.296593903337
 20
-1386.707901880424
 11
912.296593903337
 21
-1379.033290915128
  0
LINE
  5
5A
100
AcDbEntity
  8
1
  6
CONTINUOUS
 62
           7
100
AcDbLine
 10
912.296593903337
 20
-1379.033290915128
 11
919.296593903337
 21
-1379.033290915128
  0
LINE
  5
59
100
AcDbEntity
  8
1
  6
CONTINUOUS
 62
           7
100
AcDbLine
 10
914.764303736016
 20
-1379.033290915128
 11
914.764303736016
 21
-1378.187485392948
  0
LINE
  5
58
100
AcDbEntity
  8
1
  6
CONTINUOUS
 62
           7
100
AcDbLine
 10
912.596927085429
 20
-1378.187485392948
 11
919.296593903337
 21
-1378.187485392948
  0
LINE
  5
57
100
AcDbEntity
  8
1
  6
CONTINUOUS
 62
           7
100
AcDbLine
 10
912.596927085429
 20
-1378.187485392948
 11
912.596927085429
 21
-1377.482254699523
  0
LINE
  5
56
100
AcDbEntity
  8
1
  6
CONTINUOUS
 62
           7
100
AcDbLine
 10
919.296593903337
 20
-1376.982254699523
 11
913.096927085429
 21
-1376.982254699523
  0
LINE
  5
55
100
AcDbEntity
  8
1
  6
CONTINUOUS
 62
           7
100
AcDbLine
 10
925.496260721245
 20
-1376.982254699523
 11
919.296593903337
 21
-1376.982254699523
  0
LINE
  5
54
100
AcDbEntity
  8
1
  6
CONTINUOUS
 62
           7
100
AcDbLine
 10
925.996260721245
 20
-1377.482254699523
 11
925.996260721245
 21
-1378.187485392948
  0
LINE
  5
53
100
AcDbEntity
  8
1
  6
CONTINUOUS
 62
           7
100
AcDbLine
 10
919.296593903337
 20
-1378.187485392948
 11
925.996260721245
 21
-1378.187485392948
  0
LINE
  5
52
100
AcDbEntity
  8
1
  6
CONTINUOUS
 62
           7
100
AcDbLine
 10
923.828884070658
 20
-1378.187485392948
 11
923.828884070658
 21
-1379.033290915128
  0
LINE
  5
51
100
AcDbEntity
  8
1
  6
CONTINUOUS
 62
           7
100
AcDbLine
 10
926.296593903337
 20
-1379.033290915128
 11
926.296593903337
 21
-1386.707901880424
  0
LINE
  5
50
100
AcDbEntity
  8
1
  6
CONTINUOUS
 62
           7
100
AcDbLine
 10
919.296593903337
 20
-1379.033290915128
 11
926.296593903337
 21
-1379.033290915128
  0
LINE
  5
4F
100
AcDbEntity
  8
1
  6
CONTINUOUS
 62
           7
100
AcDbLine
 10
925.740340483376
 20
-1386.707901880424
 11
926.296593903337
 21
-1386.707901880424
  0
LINE
  5
4E
100
AcDbEntity
  8
1
  6
CONTINUOUS
 62
           7
100
AcDbLine
 10
912.852847323297
 20
-1386.707901880424
 11
925.740340483376
 21
-1386.707901880424
  0
LINE
  5
4D
100
AcDbEntity
  8
1
  6
CONTINUOUS
 62
           7
100
AcDbLine
 10
906.890792755568
 20
-1402.766725368043
 11
914.472160481539
 21
-1402.766725368043
  0
LINE
  5
4C
100
AcDbEntity
  8
1
  6
CONTINUOUS
 62
           7
100
AcDbLine
 10
912.852847323297
 20
-1391.197784031004
 11
914.472160481539
 21
-1393.073017427113
  0
LINE
  5
4B
100
AcDbEntity
  8
1
  6
CONTINUOUS
 62
           7
100
AcDbLine
 10
925.168428898405
 20
-1393.073017427113
 11
925.740340483376
 21
-1393.073017427113
  0
LINE
  5
4A
100
AcDbEntity
  8
1
  6
CONTINUOUS
 62
           7
100
AcDbLine
 10
914.472160481539
 20
-1393.073017427113
 11
914.472160481539
 21
-1401.67422532989
  0
LINE
  5
49
100
AcDbEntity
  8
1
  6
CONTINUOUS
 62
           7
100
AcDbLine
 10
906.890792755568
 20
-1391.197784031004
 11
912.852847323297
 21
-1391.197784031004
  0
LINE
  5
48
100
AcDbEntity
  8
1
  6
CONTINUOUS
 62
           7
100
AcDbLine
 10
912.852847323297
 20
-1391.197784031004
 11
912.852847323297
 21
-1386.707901880424
  0
LINE
  5
47
100
AcDbEntity
  8
1
  6
CONTINUOUS
 62
           7
100
AcDbLine
 10
925.740340483376
 20
-1393.073017427113
 11
925.740340483376
 21
-1386.707901880424
  0
LINE
  5
46
100
AcDbEntity
  8
1
  6
CONTINUOUS
 62
           7
100
AcDbLine
 10
925.168428898405
 20
-1396.854089694591
 11
925.168428898405
 21
-1393.073017427113
  0
LINE
  5
45
100
AcDbEntity
  8
1
  6
CONTINUOUS
 62
           7
100
AcDbLine
 10
920.168428898405
 20
-1401.854089694591
 11
914.472160481539
 21
-1401.854089694591
  0
LINE
  5
44
100
AcDbEntity
  8
1
  6
CONTINUOUS
 62
           7
100
AcDbLine
 10
898.766593903337
 20
-1401.846254699522
 11
902.787514240007
 21
-1401.986668331745
  0
LINE
  5
43
100
AcDbEntity
  8
1
  6
CONTINUOUS
 62
           6
100
AcDbLine
 10
898.766593903337
 20
-1401.265254699523
 11
894.796593903337
 21
-1401.12661924464
  0
LINE
  5
42
100
AcDbEntity
  8
1
  6
CONTINUOUS
 62
           7
100
AcDbLine
 10
901.266593903337
 20
-1392.030952775793
 11
901.266593903337
 21
-1401.933556623252
  0
LINE
  5
41
100
AcDbEntity
  8
1
  6
CONTINUOUS
 62
           7
100
AcDbLine
 10
898.766593903337
 20
-1392.118254699522
 11
902.787514240007
 21
-1391.977841067301
  0
LINE
  5
40
100
AcDbEntity
  8
1
  6
CONTINUOUS
 62
           6
100
AcDbLine
 10
898.766593903337
 20
-1392.699254699523
 11
894.796593903337
 21
-1392.837890154405
  0
LINE
  5
3F
100
AcDbEntity
  8
1
  6
CONTINUOUS
 62
           2
100
AcDbLine
 10
902.787514240007
 20
-1391.977841067301
 11
901.266593903337
 21
-1392.611952775793
  0
LINE
  5
3E
100
AcDbEntity
  8
1
  6
CONTINUOUS
 62
           2
100
AcDbLine
 10
902.787514240007
 20
-1401.846254699523
 11
901.266593903337
 21
-1401.352556623252
  0
LINE
  5
3D
100
AcDbEntity
  8
1
  6
CONTINUOUS
 62
           6
100
AcDbLine
 10
894.796593903337
 20
-1392.256890154405
 11
894.796593903337
 21
-1401.70761924464
  0
LINE
  5
3C
100
AcDbEntity
  8
1
  6
CONTINUOUS
 62
           6
100
AcDbLine
 10
894.796593903337
 20
-1401.70761924464
 11
898.766593903337
 21
-1401.846254699522
  0
LINE
  5
3B
100
AcDbEntity
  8
1
  6
CONTINUOUS
 62
           2
100
AcDbLine
 10
901.266593903337
 20
-1401.352556623252
 11
898.766593903337
 21
-1401.265254699523
  0
LINE
  5
3A
100
AcDbEntity
  8
1
  6
CONTINUOUS
 62
           2
100
AcDbLine
 10
901.266593903337
 20
-1392.611952775793
 11
898.766593903337
 21
-1392.699254699523
  0
LINE
  5
39
100
AcDbEntity
  8
1
  6
CONTINUOUS
 62
           6
100
AcDbLine
 10
894.796593903337
 20
-1392.256890154405
 11
898.766593903337
 21
-1392.118254699522
  0
LINE
  5
38
100
AcDbEntity
  8
1
  6
CONTINUOUS
 62
           7
100
AcDbLine
 10
914.472160481539
 20
-1393.073017427113
 11
925.168428898405
 21
-1393.073017427113
  0
LINE
  5
37
100
AcDbEntity
  8
1
  6
CONTINUOUS
 62
           7
100
AcDbLine
 10
914.472160481539
 20
-1393.290284069156
 11
914.472160481539
 21
-1402.766725368043
  0
LINE
  5
36
100
AcDbEntity
  8
1
  6
CONTINUOUS
 62
           7
100
AcDbLine
 10
902.796593903337
 20
-1390.482254699523
 11
902.796593903337
 21
-1403.482254699523
  0
LINE
  5
35
100
AcDbEntity
  8
1
  6
CONTINUOUS
 62
           7
100
AcDbLine
 10
903.377150486938
 20
-1404.487808198988
 11
902.796593903337
 21
-1403.482254699523
  0
LINE
  5
34
100
AcDbEntity
  8
1
  6
CONTINUOUS
 62
           7
100
AcDbLine
 10
906.316037319737
 20
-1404.487808198988
 11
903.377150486938
 21
-1404.487808198988
  0
LINE
  5
33
100
AcDbEntity
  8
1
  6
CONTINUOUS
 62
           7
100
AcDbLine
 10
906.896593903337
 20
-1403.482254699523
 11
906.316037319737
 21
-1404.487808198988
  0
LINE
  5
32
100
AcDbEntity
  8
1
  6
CONTINUOUS
 62
           7
100
AcDbLine
 10
906.896593903337
 20
-1390.482254699522
 11
906.896593903337
 21
-1403.482254699523
  0
LINE
  5
31
100
AcDbEntity
  8
1
  6
CONTINUOUS
 62
           7
100
AcDbLine
 10
906.316037319737
 20
-1389.476701200057
 11
906.896593903337
 21
-1390.482254699522
  0
LINE
  5
30
100
AcDbEntity
  8
1
  6
CONTINUOUS
 62
           7
100
AcDbLine
 10
903.377150486938
 20
-1389.476701200057
 11
906.316037319737
 21
-1389.476701200057
  0
LINE
  5
2F
100
AcDbEntity
  8
1
  6
CONTINUOUS
 62
           7
100
AcDbLine
 10
902.796593903337
 20
-1390.482254699523
 11
903.377150486938
 21
-1389.476701200057
  0
LINE
  5
2E
100
AcDbEntity
  8
1
  6
CONTINUOUS
 62
           7
100
AcDbLine
 10
906.316037319737
 20
-1400.735031449255
 11
903.377150486938
 21
-1400.735031449255
  0
LINE
  5
2D
100
AcDbEntity
  8
1
  6
CONTINUOUS
 62
           7
100
AcDbLine
 10
906.316037319737
 20
-1393.22947794979
 11
903.377150486938
 21
-1393.22947794979
  0
LINE
  5
2C
100
AcDbEntity
  8
1
  6
DOT_CENTER
 62
           2
100
AcDbLine
 10
856.766593903328
 20
-1286.59045842852
 11
856.766593903328
 21
-1194.02855992768
  0
POINT
  5
2B
100
AcDbEntity
  8
1
 62
           6
100
AcDbPoint
 10
856.766593903337
 20
-1383.482254699524
  0
POINT
  5
2A
100
AcDbEntity
  8
1
 62
           6
100
AcDbPoint
 10
856.766593903337
 20
-1370.982254699524
  0
POINT
  5
29
100
AcDbEntity
  8
1
 62
           6
100
AcDbPoint
 10
898.766593903337
 20
-1396.982254699523
  0
ENDSEC
  0
SECTION
  2
OBJECTS
  0
DICTIONARY
  5
19
100
AcDbDictionary
  3
ACAD_GROUP
350
1A
  3
ACAD_MLINESTYLE
350
1B
  0
DICTIONARY
  5
1A
102
{ACAD_REACTORS
330
19
102
}
100
AcDbDictionary
  0
DICTIONARY
  5
1B
102
{ACAD_REACTORS
330
19
102
}
100
AcDbDictionary
  3
STANDARD
350
1C
  0
MLINESTYLE
  5
1C
102
{ACAD_REACTORS
330
1B
102
}
100
AcDbMlineStyle
  2
STANDARD
 70
           0
  3

 62
           0
 51
90.0
 52
90.0
 71
           2
 49
0.5
 62
         256
  6
BYLAYER
 49
-0.5
 62
         256
  6
BYLAYER
  0
ENDSEC
  0
EOF
