  0
SECTION
  2
HEADER
  9
$ACADVER
  1
AC1015
  9
$ACADMAINTVER
 70
     6
  9
$DWGCODEPAGE
  3
DOS932
  9
$INSBASE
 10
0.0
 20
0.0
 30
0.0
  9
$EXTMIN
 10
0.0
 20
0.0
 30
0.0
  9
$EXTMAX
 10
279.4
 20
215.9
 30
0.0
  9
$LIMMIN
 10
0.0
 20
0.0
  9
$LIMMAX
 10
279.4
 20
215.9
  9
$ORTHOMODE
 70
     0
  9
$REGENMODE
 70
     1
  9
$FILLMODE
 70
     1
  9
$QTEXTMODE
 70
     0
  9
$MIRRTEXT
 70
     1
  9
$LTSCALE
 40
1.0
  9
$ATTMODE
 70
     1
  9
$TEXTSIZE
 40
3.5
  9
$TRACEWID
 40
1.0
  9
$TEXTSTYLE
  7
Standard
  9
$CLAYER
  8
0
  9
$CELTYPE
  6
ByLayer
  9
$CECOLOR
 62
   256
  9
$CELTSCALE
 40
1.0
  9
$DISPSILH
 70
     0
  9
$DIMSCALE
 40
1.0
  9
$DIMASZ
 40
3.302
  9
$DIMEXO
 40
1.0
  9
$DIMDLI
 40
3.75
  9
$DIMRND
 40
0.0
  9
$DIMDLE
 40
0.0
  9
$DIMEXE
 40
1.0
  9
$DIMTP
 40
0.0
  9
$DIMTM
 40
0.0
  9
$DIMTXT
 40
3.5
  9
$DIMCEN
 40
2.5
  9
$DIMTSZ
 40
0.0
  9
$DIMTOL
 70
     0
  9
$DIMLIM
 70
     0
  9
$DIMTIH
 70
     1
  9
$DIMTOH
 70
     1
  9
$DIMSE1
 70
     0
  9
$DIMSE2
 70
     0
  9
$DIMTAD
 70
     1
  9
$DIMZIN
 70
     0
  9
$DIMBLK
  1

  9
$DIMASO
 70
     1
  9
$DIMSHO
 70
     1
  9
$DIMPOST
  1

  9
$DIMAPOST
  1

  9
$DIMALT
 70
     0
  9
$DIMALTD
 70
     3
  9
$DIMALTF
 40
0.0393700787
  9
$DIMLFAC
 40
1.0
  9
$DIMTOFL
 70
     1
  9
$DIMTVP
 40
0.0
  9
$DIMTIX
 70
     0
  9
$DIMSOXD
 70
     0
  9
$DIMSAH
 70
     0
  9
$DIMBLK1
  1

  9
$DIMBLK2
  1

  9
$DIMSTYLE
  2
ISO-25
  9
$DIMCLRD
 70
     0
  9
$DIMCLRE
 70
     0
  9
$DIMCLRT
 70
     0
  9
$DIMTFAC
 40
1.0
  9
$DIMGAP
 40
1.524
  9
$DIMJUST
 70
     0
  9
$DIMSD1
 70
     0
  9
$DIMSD2
 70
     0
  9
$DIMTOLJ
 70
     0
  9
$DIMTZIN
 70
     0
  9
$DIMALTZ
 70
     0
  9
$DIMALTTZ
 70
     0
  9
$DIMUPT
 70
     0
  9
$DIMDEC
 70
     2
  9
$DIMTDEC
 70
     2
  9
$DIMALTU
 70
     2
  9
$DIMALTTD
 70
     3
  9
$DIMTXSTY
  7
Standard
  9
$DIMAUNIT
 70
     0
  9
$DIMADEC
 70
     2
  9
$DIMALTRND
 40
0.0
  9
$DIMAZIN
 70
     0
  9
$DIMDSEP
 70
    44
  9
$DIMATFIT
 70
     3
  9
$DIMFRAC
 70
     0
  9
$DIMLDRBLK
  1

  9
$DIMLUNIT
 70
     2
  9
$DIMLWD
 70
    -2
  9
$DIMLWE
 70
    -2
  9
$DIMTMOVE
 70
     0
  9
$LUNITS
 70
     2
  9
$LUPREC
 70
     2
  9
$SKETCHINC
 40
1.0
  9
$FILLETRAD
 40
10.0
  9
$AUNITS
 70
     0
  9
$AUPREC
 70
     2
  9
$MENU
  1
.
  9
$ELEVATION
 40
0.0
  9
$PELEVATION
 40
0.0
  9
$THICKNESS
 40
0.0
  9
$LIMCHECK
 70
     0
  9
$CHAMFERA
 40
0.0
  9
$CHAMFERB
 40
0.0
  9
$CHAMFERC
 40
0.0
  9
$CHAMFERD
 40
0.0
  9
$SKPOLY
 70
     0
  9
$TDCREATE
 40
2458551.536647118
  9
$TDUCREATE
 40
2458551.161647118
  9
$TDUPDATE
 40
2458551.536648287
  9
$TDUUPDATE
 40
2458551.161648287
  9
$TDINDWG
 40
0.0000000116
  9
$TDUSRTIMER
 40
0.0000000116
  9
$USRTIMER
 70
     1
  9
$ANGBASE
 50
0.0
  9
$ANGDIR
 70
     0
  9
$PDMODE
 70
     0
  9
$PDSIZE
 40
-1.0
  9
$PLINEWID
 40
0.0
  9
$SPLFRAME
 70
     0
  9
$SPLINETYPE
 70
     6
  9
$SPLINESEGS
 70
     8
  9
$HANDSEED
  5
47E
  9
$SURFTAB1
 70
     6
  9
$SURFTAB2
 70
     6
  9
$SURFTYPE
 70
     6
  9
$SURFU
 70
     6
  9
$SURFV
 70
     6
  9
$UCSBASE
  2

  9
$UCSNAME
  2

  9
$UCSORG
 10
0.0
 20
0.0
 30
0.0
  9
$UCSXDIR
 10
1.0
 20
0.0
 30
0.0
  9
$UCSYDIR
 10
0.0
 20
1.0
 30
0.0
  9
$UCSORTHOREF
  2

  9
$UCSORTHOVIEW
 70
     0
  9
$UCSORGTOP
 10
0.0
 20
0.0
 30
0.0
  9
$UCSORGBOTTOM
 10
0.0
 20
0.0
 30
0.0
  9
$UCSORGLEFT
 10
0.0
 20
0.0
 30
0.0
  9
$UCSORGRIGHT
 10
0.0
 20
0.0
 30
0.0
  9
$UCSORGFRONT
 10
0.0
 20
0.0
 30
0.0
  9
$UCSORGBACK
 10
0.0
 20
0.0
 30
0.0
  9
$PUCSBASE
  2

  9
$PUCSNAME
  2

  9
$PUCSORG
 10
0.0
 20
0.0
 30
0.0
  9
$PUCSXDIR
 10
1.0
 20
0.0
 30
0.0
  9
$PUCSYDIR
 10
0.0
 20
1.0
 30
0.0
  9
$PUCSORTHOREF
  2

  9
$PUCSORTHOVIEW
 70
     0
  9
$PUCSORGTOP
 10
0.0
 20
0.0
 30
0.0
  9
$PUCSORGBOTTOM
 10
0.0
 20
0.0
 30
0.0
  9
$PUCSORGLEFT
 10
0.0
 20
0.0
 30
0.0
  9
$PUCSORGRIGHT
 10
0.0
 20
0.0
 30
0.0
  9
$PUCSORGFRONT
 10
0.0
 20
0.0
 30
0.0
  9
$PUCSORGBACK
 10
0.0
 20
0.0
 30
0.0
  9
$USERI1
 70
     0
  9
$USERI2
 70
     0
  9
$USERI3
 70
     0
  9
$USERI4
 70
     0
  9
$USERI5
 70
     0
  9
$USERR1
 40
0.0
  9
$USERR2
 40
0.0
  9
$USERR3
 40
0.0
  9
$USERR4
 40
0.0
  9
$USERR5
 40
0.0
  9
$WORLDVIEW
 70
     1
  9
$SHADEDGE
 70
     3
  9
$SHADEDIF
 70
    70
  9
$TILEMODE
 70
     1
  9
$MAXACTVP
 70
    64
  9
$PINSBASE
 10
0.0
 20
0.0
 30
0.0
  9
$PLIMCHECK
 70
     0
  9
$PEXTMIN
 10
1.0000000000E+20
 20
1.0000000000E+20
 30
1.0000000000E+20
  9
$PEXTMAX
 10
-1.0000000000E+20
 20
-1.0000000000E+20
 30
-1.0000000000E+20
  9
$PLIMMIN
 10
0.0
 20
0.0
  9
$PLIMMAX
 10
420.0
 20
297.0
  9
$UNITMODE
 70
     0
  9
$VISRETAIN
 70
     1
  9
$PLINEGEN
 70
     0
  9
$PSLTSCALE
 70
     1
  9
$TREEDEPTH
 70
  3020
  9
$CMLSTYLE
  2
Standard
  9
$CMLJUST
 70
     0
  9
$CMLSCALE
 40
20.0
  9
$PROXYGRAPHICS
 70
     1
  9
$MEASUREMENT
 70
     1
  9
$CELWEIGHT
370
    -1
  9
$ENDCAPS
280
     0
  9
$JOINSTYLE
280
     0
  9
$LWDISPLAY
290
     1
  9
$INSUNITS
 70
     4
  9
$HYPERLINKBASE
  1

  9
$STYLESHEET
  1

  9
$XEDIT
290
     1
  9
$CEPSNTYPE
380
     0
  9
$PSTYLEMODE
290
     1
  9
$FINGERPRINTGUID
  2
{69D1ADA6-7596-4F3C-B1F6-A6710E51150E}
  9
$VERSIONGUID
  2
{FAEB1C32-E019-11D5-929B-00C0DF256EC4}
  9
$EXTNAMES
290
     1
  9
$PSVPSCALE
 40
0.0
  9
$OLESTARTUP
290
     0
  0
ENDSEC
  0
SECTION
  2
CLASSES
  0
CLASS
  1
ACDBDICTIONARYWDFLT
  2
AcDbDictionaryWithDefault
  3
ObjectDBX Classes
 90
        0
280
     0
281
     0
  0
CLASS
  1
VISUALSTYLE
  2
AcDbVisualStyle
  3
ObjectDBX Classes
 90
     4095
280
     0
281
     0
  0
CLASS
  1
MATERIAL
  2
AcDbMaterial
  3
ObjectDBX Classes
 90
     1153
280
     0
281
     0
  0
CLASS
  1
SCALE
  2
AcDbScale
  3
ObjectDBX Classes
 90
     1153
280
     0
281
     0
  0
CLASS
  1
TABLESTYLE
  2
AcDbTableStyle
  3
ObjectDBX Classes
 90
     4095
280
     0
281
     0
  0
CLASS
  1
MLEADERSTYLE
  2
AcDbMLeaderStyle
  3
ACDB_MLEADERSTYLE_CLASS
 90
     4095
280
     0
281
     0
  0
CLASS
  1
SUN
  2
AcDbSun
  3
SCENEOE
 90
     1153
280
     0
281
     0
  0
CLASS
  1
ACDBPLACEHOLDER
  2
AcDbPlaceHolder
  3
ObjectDBX Classes
 90
        0
280
     0
281
     0
  0
CLASS
  1
LAYOUT
  2
AcDbLayout
  3
ObjectDBX Classes
 90
        0
280
     0
281
     0
  0
ENDSEC
  0
SECTION
  2
TABLES
  0
TABLE
  2
VPORT
  5
8
330
0
100
AcDbSymbolTable
 70
     1
  0
VPORT
  5
29
330
8
100
AcDbSymbolTableRecord
100
AcDbViewportTableRecord
  2
*Active
 70
     0
 10
0.0
 20
0.0
 11
1.0
 21
1.0
 12
139.7
 22
107.95
 13
0.0
 23
0.0
 14
10.0
 24
10.0
 15
10.0
 25
10.0
 16
0.0
 26
0.0
 36
1.0
 17
0.0
 27
0.0
 37
0.0
 40
215.9
 41
1.2941176471
 42
50.0
 43
0.0
 44
0.0
 50
0.0
 51
0.0
 71
     0
 72
  2000
 73
     1
 74
     3
 75
     0
 76
     0
 77
     0
 78
     0
281
     0
 65
     1
110
0.0
120
0.0
130
0.0
111
1.0
121
0.0
131
0.0
112
0.0
122
1.0
132
0.0
 79
     0
146
0.0
  0
ENDTAB
  0
TABLE
  2
LTYPE
  5
5
330
0
100
AcDbSymbolTable
 70
     6
  0
LTYPE
  5
14
330
5
100
AcDbSymbolTableRecord
100
AcDbLinetypeTableRecord
  2
ByBlock
 70
     0
  3

 72
    65
 73
     0
 40
0.0
  0
LTYPE
  5
15
330
5
100
AcDbSymbolTableRecord
100
AcDbLinetypeTableRecord
  2
ByLayer
 70
     0
  3

 72
    65
 73
     0
 40
0.0
  0
LTYPE
  5
16
330
5
100
AcDbSymbolTableRecord
100
AcDbLinetypeTableRecord
  2
Continuous
 70
     0
  3
Solid line
 72
    65
 73
     0
 40
0.0
  0
LTYPE
  5
6E
330
5
100
AcDbSymbolTableRecord
100
AcDbLinetypeTableRecord
  2
HIDDEN
 70
     0
  3
Hidden __ __ __ __ __ __ __ __ __ __ __ __ __ __
 72
    65
 73
     2
 40
1.905
 49
1.27
 74
     0
 49
-0.635
 74
     0
  0
LTYPE
  5
6F
330
5
100
AcDbSymbolTableRecord
100
AcDbLinetypeTableRecord
  2
PHANTOM
 70
     0
  3
Phantom ______  __  __  ______  __  __  ______
 72
    65
 73
     6
 40
12.7
 49
6.35
 74
     0
 49
-1.27
 74
     0
 49
1.27
 74
     0
 49
-1.27
 74
     0
 49
1.27
 74
     0
 49
-1.27
 74
     0
  0
LTYPE
  5
70
330
5
100
AcDbSymbolTableRecord
100
AcDbLinetypeTableRecord
  2
CENTER
 70
     0
  3
Center ____ _ ____ _ ____ _ ____ _ ____ _ ____
 72
    65
 73
     4
 40
10.16
 49
6.35
 74
     0
 49
-1.27
 74
     0
 49
1.27
 74
     0
 49
-1.27
 74
     0
  0
LTYPE
  5
71
330
5
100
AcDbSymbolTableRecord
100
AcDbLinetypeTableRecord
  2
CENTERX2
 70
     0
  3
Center (2x) ________  __  ________  __  _____
 72
    65
 73
     4
 40
20.32
 49
12.7
 74
     0
 49
-2.54
 74
     0
 49
2.54
 74
     0
 49
-2.54
 74
     0
  0
LTYPE
  5
72
330
5
100
AcDbSymbolTableRecord
100
AcDbLinetypeTableRecord
  2
DOT2
 70
     0
  3
Dot (.5x) ........................................
 72
    65
 73
     2
 40
0.635
 49
0.0
 74
     0
 49
-0.635
 74
     0
  0
ENDTAB
  0
TABLE
  2
LAYER
  5
2
330
0
100
AcDbSymbolTable
 70
     1
  0
LAYER
  5
10
330
2
100
AcDbSymbolTableRecord
100
AcDbLayerTableRecord
  2
0
 70
     0
 62
     7
  6
Continuous
370
    -3
390
F
  0
ENDTAB
  0
TABLE
  2
STYLE
  5
3
330
0
100
AcDbSymbolTable
 70
     1
  0
STYLE
  5
11
330
3
100
AcDbSymbolTableRecord
100
AcDbTextStyleTableRecord
  2
Standard
 70
     0
 40
0.0
 41
1.0
 50
0.0
 71
     0
 42
3.5
  3
txt
  4
bigfont
  0
ENDTAB
  0
TABLE
  2
VIEW
  5
6
330
0
100
AcDbSymbolTable
 70
     0
  0
ENDTAB
  0
TABLE
  2
UCS
  5
7
330
0
100
AcDbSymbolTable
 70
     0
  0
ENDTAB
  0
TABLE
  2
APPID
  5
9
330
0
100
AcDbSymbolTable
 70
     1
  0
APPID
  5
12
330
9
100
AcDbSymbolTableRecord
100
AcDbRegAppTableRecord
  2
ACAD
 70
     0
  0
ENDTAB
  0
TABLE
  2
DIMSTYLE
  5
A
330
0
100
AcDbSymbolTable
 70
     1
100
AcDbDimStyleTable
  0
DIMSTYLE
105
27
330
A
100
AcDbSymbolTableRecord
100
AcDbDimStyleTableRecord
  2
ISO-25
 70
     0
 41
2.5
 42
0.625
 43
3.75
 44
1.25
 73
     0
 74
     0
 77
     1
 78
     8
140
2.5
141
2.5
143
0.0393700787
147
0.625
171
     3
172
     1
178
     0
271
     2
272
     2
274
     3
278
    44
283
     0
284
     8
340
11
  0
ENDTAB
  0
TABLE
  2
BLOCK_RECORD
  5
1
330
0
100
AcDbSymbolTable
 70
     1
  0
BLOCK_RECORD
  5
1F
330
1
100
AcDbSymbolTableRecord
100
AcDbBlockTableRecord
  2
*Model_Space
340
22
  0
BLOCK_RECORD
  5
1B
330
1
100
AcDbSymbolTableRecord
100
AcDbBlockTableRecord
  2
*Paper_Space
340
1E
  0
BLOCK_RECORD
  5
23
330
1
100
AcDbSymbolTableRecord
100
AcDbBlockTableRecord
  2
*Paper_Space0
340
26
  0
ENDTAB
  0
ENDSEC
  0
SECTION
  2
BLOCKS
  0
BLOCK
  5
20
330
1F
100
AcDbEntity
  8
0
100
AcDbBlockBegin
  2
*Model_Space
 70
     0
 10
0.0
 20
0.0
 30
0.0
  3
*Model_Space
  1

  0
ENDBLK
  5
21
330
1F
100
AcDbEntity
  8
0
100
AcDbBlockEnd
  0
BLOCK
  5
1C
330
1B
100
AcDbEntity
 67
     1
  8
0
100
AcDbBlockBegin
  2
*Paper_Space
 70
     0
 10
0.0
 20
0.0
 30
0.0
  3
*Paper_Space
  1

  0
ENDBLK
  5
1D
330
1B
100
AcDbEntity
 67
     1
  8
0
100
AcDbBlockEnd
  0
BLOCK
  5
24
330
23
100
AcDbEntity
  8
0
100
AcDbBlockBegin
  2
*Paper_Space0
 70
     0
 10
0.0
 20
0.0
 30
0.0
  3
*Paper_Space0
  1

  0
ENDBLK
  5
25
330
23
100
AcDbEntity
  8
0
100
AcDbBlockEnd
  0
ENDSEC
  0
SECTION
  2
ENTITIES
  0
LINE
  5
73
330
1F
100
AcDbEntity
  8
0
  6
Continuous
 62
     7
370
    25
100
AcDbLine
 10
45.8423830793
 20
25.8274104016
 30
0.0
 11
44.2648830793
 21
24.2499104016
 31
0.0
  0
LINE
  5
74
330
1F
100
AcDbEntity
  8
0
  6
Continuous
 62
     7
370
    25
100
AcDbLine
 10
44.2648830793
 20
14.2499104016
 30
0.0
 11
45.8423830793
 21
12.6724104016
 31
0.0
  0
ARC
  5
75
330
1F
100
AcDbEntity
  8
0
  6
Continuous
 62
     7
370
    25
100
AcDbCircle
 10
42.5148830793
 20
24.6499104016
 30
0.0
 40
0.4000000000000057
100
AcDbArc
 50
180.0
 51
270.0
  0
ARC
  5
76
330
1F
100
AcDbEntity
  8
0
  6
Continuous
 62
     7
370
    25
100
AcDbCircle
 10
42.5148830793
 20
13.8499104016
 30
0.0
 40
0.4000000000000057
100
AcDbArc
 50
90.0
 51
180.0
  0
LINE
  5
77
330
1F
100
AcDbEntity
  8
0
  6
Continuous
 62
     7
370
    25
100
AcDbLine
 10
44.2648830793
 20
24.2499104016
 30
0.0
 11
42.5148830793
 21
24.2499104016
 31
0.0
  0
LINE
  5
78
330
1F
100
AcDbEntity
  8
0
  6
Continuous
 62
     7
370
    25
100
AcDbLine
 10
42.5148830793
 20
14.2499104016
 30
0.0
 11
44.2648830793
 21
14.2499104016
 31
0.0
  0
LINE
  5
79
330
1F
100
AcDbEntity
  8
0
  6
Continuous
 62
     7
370
    25
100
AcDbLine
 10
42.1148830793
 20
26.2499104016
 30
0.0
 11
41.6818703774
 21
26.9999104016
 31
0.0
  0
LINE
  5
7A
330
1F
100
AcDbEntity
  8
0
  6
Continuous
 62
     7
370
    25
100
AcDbLine
 10
41.6818703774
 20
11.4999104016
 30
0.0
 11
42.1148830793
 21
12.2499104016
 31
0.0
  0
LINE
  5
7B
330
1F
100
AcDbEntity
  8
0
  6
Continuous
 62
     7
370
    25
100
AcDbLine
 10
37.5478957812
 20
26.9999104016
 30
0.0
 11
37.1148830793
 21
26.2499104016
 31
0.0
  0
LINE
  5
7C
330
1F
100
AcDbEntity
  8
0
  6
Continuous
 62
     7
370
    25
100
AcDbLine
 10
37.1148830793
 20
12.2499104016
 30
0.0
 11
37.5478957812
 21
11.4999104016
 31
0.0
  0
LINE
  5
7D
330
1F
100
AcDbEntity
  8
0
  6
Continuous
 62
     7
370
    25
100
AcDbLine
 10
37.5478957812
 20
11.4999104016
 30
0.0
 11
41.6818703774
 21
11.4999104016
 31
0.0
  0
LINE
  5
7E
330
1F
100
AcDbEntity
  8
0
  6
Continuous
 62
     7
370
    25
100
AcDbLine
 10
41.6818703774
 20
26.9999104016
 30
0.0
 11
37.5478957812
 21
26.9999104016
 31
0.0
  0
LINE
  5
7F
330
1F
100
AcDbEntity
  8
0
  6
Continuous
 62
     7
370
    25
100
AcDbLine
 10
43.8423830793
 20
46.8499104016
 30
0.0
 11
44.7423830793
 21
45.9499104016
 31
0.0
  0
LINE
  5
80
330
1F
100
AcDbEntity
  8
0
  6
Continuous
 62
     7
370
    25
100
AcDbLine
 10
89.9423830793
 20
45.9499104016
 30
0.0
 11
90.8423830793
 21
46.8499104016
 31
0.0
  0
LINE
  5
81
330
1F
100
AcDbEntity
  8
0
  6
Continuous
 62
     7
370
    25
100
AcDbLine
 10
90.8423830793
 20
55.9499104016
 30
0.0
 11
90.3423830793
 21
56.4499104016
 31
0.0
  0
LINE
  5
82
330
1F
100
AcDbEntity
  8
0
  6
Continuous
 62
     7
370
    25
100
AcDbLine
 10
44.3423830793
 20
56.4499104016
 30
0.0
 11
43.8423830793
 21
55.9499104016
 31
0.0
  0
LINE
  5
83
330
1F
100
AcDbEntity
  8
0
  6
Continuous
 62
     7
370
    25
100
AcDbLine
 10
43.8423830793
 20
55.9499104016
 30
0.0
 11
43.8423830793
 21
46.8499104016
 31
0.0
  0
LINE
  5
84
330
1F
100
AcDbEntity
  8
0
  6
Continuous
 62
     7
370
    25
100
AcDbLine
 10
90.8423830793
 20
52.8244752363
 30
0.0
 11
90.8423830793
 21
55.9499104016
 31
0.0
  0
LINE
  5
85
330
1F
100
AcDbEntity
  8
0
  6
Continuous
 62
     7
370
    25
100
AcDbLine
 10
90.8423830793
 20
46.8499104016
 30
0.0
 11
90.8423830793
 21
48.8516081612
 31
0.0
  0
LINE
  5
86
330
1F
100
AcDbEntity
  8
0
  6
Continuous
 62
     7
370
    25
100
AcDbLine
 10
90.8423830793
 20
75.4899104016
 30
0.0
 11
90.3423830793
 21
75.9899104016
 31
0.0
  0
LINE
  5
87
330
1F
100
AcDbEntity
  8
0
  6
Continuous
 62
     7
370
    25
100
AcDbLine
 10
44.3423830793
 20
75.9899104016
 30
0.0
 11
43.8423830793
 21
75.4899104016
 31
0.0
  0
LINE
  5
88
330
1F
100
AcDbEntity
  8
0
  6
Continuous
 62
     7
370
    25
100
AcDbLine
 10
43.8423830793
 20
71.9899104016
 30
0.0
 11
44.3423830793
 21
71.4899104016
 31
0.0
  0
LINE
  5
89
330
1F
100
AcDbEntity
  8
0
  6
Continuous
 62
     7
370
    25
100
AcDbLine
 10
90.3423830793
 20
71.4899104016
 30
0.0
 11
90.8423830793
 21
71.9899104016
 31
0.0
  0
LINE
  5
8A
330
1F
100
AcDbEntity
  8
0
  6
Continuous
 62
     7
370
    25
100
AcDbLine
 10
43.8423830793
 20
75.4899104016
 30
0.0
 11
43.8423830793
 21
71.9899104016
 31
0.0
  0
LINE
  5
8B
330
1F
100
AcDbEntity
  8
0
  6
Continuous
 62
     7
370
    25
100
AcDbLine
 10
90.8423830793
 20
71.9899104016
 30
0.0
 11
90.8423830793
 21
75.4899104016
 31
0.0
  0
LINE
  5
8C
330
1F
100
AcDbEntity
  8
0
  6
Continuous
 62
     7
370
    25
100
AcDbLine
 10
42.8423830793
 20
45.4499104016
 30
0.0
 11
42.8423830793
 21
36.9494001444
 31
0.0
  0
LINE
  5
8D
330
1F
100
AcDbEntity
  8
0
  6
Continuous
 62
     7
370
    25
100
AcDbLine
 10
91.8423830793
 20
36.9494001444
 30
0.0
 11
91.8423830793
 21
45.4499104016
 31
0.0
  0
LINE
  5
8E
330
1F
100
AcDbEntity
  8
0
  6
Continuous
 62
     7
370
    25
100
AcDbLine
 10
91.8423830793
 20
45.4499104016
 30
0.0
 11
91.3423830793
 21
45.9499104016
 31
0.0
  0
LINE
  5
8F
330
1F
100
AcDbEntity
  8
0
  6
Continuous
 62
     7
370
    25
100
AcDbLine
 10
43.3423830793
 20
45.9499104016
 30
0.0
 11
42.8423830793
 21
45.4499104016
 31
0.0
  0
ARC
  5
90
330
1F
100
AcDbEntity
  8
0
  6
Continuous
 62
     7
370
    25
100
AcDbCircle
 10
43.3423830793
 20
34.4999104016
 30
0.0
 40
2.500000000000001
100
AcDbArc
 50
0.0
 51
78.4630409672
  0
ARC
  5
91
330
1F
100
AcDbEntity
  8
0
  6
Continuous
 62
     7
370
    25
100
AcDbCircle
 10
91.3423830793
 20
34.4999104016
 30
0.0
 40
2.500000000000001
100
AcDbArc
 50
101.5369590328
 51
180.0
  0
LINE
  5
92
330
1F
100
AcDbEntity
  8
0
  6
Continuous
 62
     7
370
    25
100
AcDbLine
 10
45.8423830793
 20
34.4999104016
 30
0.0
 11
45.8423830793
 21
28.2499104016
 31
0.0
  0
LINE
  5
93
330
1F
100
AcDbEntity
  8
0
  6
Continuous
 62
     7
370
    25
100
AcDbLine
 10
88.8423830793
 20
28.2499104016
 30
0.0
 11
88.8423830793
 21
34.4999104016
 31
0.0
  0
LINE
  5
94
330
1F
100
AcDbEntity
  8
0
  6
Continuous
 62
     7
370
    25
100
AcDbLine
 10
63.8423830793
 20
89.8299104016
 30
0.0
 11
63.8423830793
 21
89.0299104016
 31
0.0
  0
LINE
  5
95
330
1F
100
AcDbEntity
  8
0
  6
Continuous
 62
     7
370
    25
100
AcDbLine
 10
70.8423830793
 20
89.0299104016
 30
0.0
 11
70.8423830793
 21
89.8299104016
 31
0.0
  0
ARC
  5
96
330
1F
100
AcDbEntity
  8
0
  6
Continuous
 62
     7
370
    25
100
AcDbCircle
 10
70.3423830793
 20
89.8299104016
 30
0.0
 40
0.5
100
AcDbArc
 50
0.0
 51
90.0
  0
ARC
  5
97
330
1F
100
AcDbEntity
  8
0
  6
Continuous
 62
     7
370
    25
100
AcDbCircle
 10
64.3423830793
 20
89.8299104016
 30
0.0
 40
0.5
100
AcDbArc
 50
90.0
 51
180.0
  0
LINE
  5
98
330
1F
100
AcDbEntity
  8
0
  6
Continuous
 62
     7
370
    25
100
AcDbLine
 10
44.8423830793
 20
89.8299104016
 30
0.0
 11
44.8423830793
 21
86.3299104016
 31
0.0
  0
LINE
  5
99
330
1F
100
AcDbEntity
  8
0
  6
Continuous
 62
     7
370
    25
100
AcDbLine
 10
51.8423830793
 20
88.8299104016
 30
0.0
 11
51.8423830793
 21
89.8299104016
 31
0.0
  0
ARC
  5
9A
330
1F
100
AcDbEntity
  8
0
  6
Continuous
 62
     7
370
    25
100
AcDbCircle
 10
51.3423830793
 20
89.8299104016
 30
0.0
 40
0.5
100
AcDbArc
 50
0.0
 51
90.0
  0
ARC
  5
9B
330
1F
100
AcDbEntity
  8
0
  6
Continuous
 62
     7
370
    25
100
AcDbCircle
 10
45.3423830793
 20
89.8299104016
 30
0.0
 40
0.5
100
AcDbArc
 50
90.0
 51
180.0
  0
LINE
  5
9C
330
1F
100
AcDbEntity
  8
0
  6
Continuous
 62
     7
370
    25
100
AcDbLine
 10
76.7774119219
 20
83.8299104016
 30
0.0
 11
76.7774119219
 21
83.0299104016
 31
0.0
  0
LINE
  5
9D
330
1F
100
AcDbEntity
  8
0
  6
Continuous
 62
     7
370
    25
100
AcDbLine
 10
84.7774119219
 20
83.0299104016
 30
0.0
 11
84.7774119219
 21
83.8299104016
 31
0.0
  0
LINE
  5
9E
330
1F
100
AcDbEntity
  8
0
  6
Continuous
 62
     7
370
    25
100
AcDbLine
 10
44.3423830793
 20
85.3299104016
 30
0.0
 11
44.3423830793
 21
84.5299104016
 31
0.0
  0
LINE
  5
9F
330
1F
100
AcDbEntity
  8
0
  6
Continuous
 62
     7
370
    25
100
AcDbLine
 10
77.2774119219
 20
88.4299104015
 30
0.0
 11
77.2774119219
 21
84.8299104016
 31
0.0
  0
LINE
  5
A0
330
1F
100
AcDbEntity
  8
0
  6
Continuous
 62
     7
370
    25
100
AcDbLine
 10
84.2774119219
 20
84.8299104016
 30
0.0
 11
84.2774119219
 21
88.4299104015
 31
0.0
  0
LINE
  5
A1
330
1F
100
AcDbEntity
  8
0
  6
Continuous
 62
     7
370
    25
100
AcDbLine
 10
84.2774119219
 20
88.4299104015
 30
0.0
 11
83.8774119219
 21
88.8299104016
 31
0.0
  0
LINE
  5
A2
330
1F
100
AcDbEntity
  8
0
  6
Continuous
 62
     7
370
    25
100
AcDbLine
 10
77.6774119219
 20
88.8299104016
 30
0.0
 11
77.2774119219
 21
88.4299104015
 31
0.0
  0
LINE
  5
A3
330
1F
100
AcDbEntity
  8
0
  6
Continuous
 62
     7
370
    25
100
AcDbLine
 10
78.7774119219
 20
77.0299104016
 30
0.0
 11
78.7774119219
 21
76.6299104016
 31
0.0
  0
LINE
  5
A4
330
1F
100
AcDbEntity
  8
0
  6
Continuous
 62
     7
370
    25
100
AcDbLine
 10
78.7774119219
 20
57.4899104016
 30
0.0
 11
78.7774119219
 21
57.0899104016
 31
0.0
  0
LINE
  5
A5
330
1F
100
AcDbEntity
  8
0
  6
Continuous
 62
     7
370
    25
100
AcDbLine
 10
82.7774119219
 20
57.0899104016
 30
0.0
 11
82.7774119219
 21
57.4899104016
 31
0.0
  0
LINE
  5
A6
330
1F
100
AcDbEntity
  8
0
  6
Continuous
 62
     7
370
    25
100
AcDbLine
 10
82.7774119219
 20
76.6299104016
 30
0.0
 11
82.7774119219
 21
77.0299104016
 31
0.0
  0
LINE
  5
A7
330
1F
100
AcDbEntity
  8
0
  6
Continuous
 62
     7
370
    25
100
AcDbLine
 10
50.3264751608
 20
88.4299104015
 30
0.0
 11
50.3264751608
 21
84.8299104016
 31
0.0
  0
LINE
  5
A8
330
1F
100
AcDbEntity
  8
0
  6
Continuous
 62
     7
370
    25
100
AcDbLine
 10
57.3264751608
 20
84.8299104016
 30
0.0
 11
57.3264751608
 21
88.4299104015
 31
0.0
  0
LINE
  5
A9
330
1F
100
AcDbEntity
  8
0
  6
Continuous
 62
     7
370
    25
100
AcDbLine
 10
57.3264751608
 20
88.4299104015
 30
0.0
 11
56.9264751608
 21
88.8299104016
 31
0.0
  0
LINE
  5
AA
330
1F
100
AcDbEntity
  8
0
  6
Continuous
 62
     7
370
    25
100
AcDbLine
 10
50.7264751608
 20
88.8299104016
 30
0.0
 11
50.3264751608
 21
88.4299104015
 31
0.0
  0
LINE
  5
AB
330
1F
100
AcDbEntity
  8
0
  6
Continuous
 62
     7
370
    25
100
AcDbLine
 10
51.8264751608
 20
77.0299104016
 30
0.0
 11
51.8264751608
 21
76.6299104016
 31
0.0
  0
LINE
  5
AC
330
1F
100
AcDbEntity
  8
0
  6
Continuous
 62
     7
370
    25
100
AcDbLine
 10
51.8264751608
 20
57.4899104016
 30
0.0
 11
51.8264751608
 21
57.0899104016
 31
0.0
  0
LINE
  5
AD
330
1F
100
AcDbEntity
  8
0
  6
Continuous
 62
     7
370
    25
100
AcDbLine
 10
55.8264751608
 20
57.0899104016
 30
0.0
 11
55.8264751608
 21
57.4899104016
 31
0.0
  0
LINE
  5
AE
330
1F
100
AcDbEntity
  8
0
  6
Continuous
 62
     7
370
    25
100
AcDbLine
 10
55.8264751608
 20
76.6299104016
 30
0.0
 11
55.8264751608
 21
77.0299104016
 31
0.0
  0
LINE
  5
AF
330
1F
100
AcDbEntity
  8
0
  6
Continuous
 62
     7
370
    25
100
AcDbLine
 10
57.4073542368
 20
84.8299104016
 30
0.0
 11
57.4073542368
 21
88.4299104015
 31
0.0
  0
LINE
  5
B0
330
1F
100
AcDbEntity
  8
0
  6
Continuous
 62
     7
370
    25
100
AcDbLine
 10
57.4073542368
 20
88.4299104015
 30
0.0
 11
57.0073542368
 21
88.8299104016
 31
0.0
  0
LINE
  5
B1
330
1F
100
AcDbEntity
  8
0
  6
Continuous
 62
     7
370
    25
100
AcDbLine
 10
88.8423830793
 20
27.7499104016
 30
0.0
 11
88.3423830793
 21
28.2499104016
 31
0.0
  0
LINE
  5
B2
330
1F
100
AcDbEntity
  8
0
  6
Continuous
 62
     7
370
    25
100
AcDbLine
 10
88.8423830793
 20
25.8274104016
 30
0.0
 11
88.8423830793
 21
27.7499104016
 31
0.0
  0
LINE
  5
B3
330
1F
100
AcDbEntity
  8
0
  6
Continuous
 62
     7
370
    25
100
AcDbLine
 10
88.8423830793
 20
8.7499104016
 30
0.0
 11
88.8423830793
 21
12.6724104016
 31
0.0
  0
LINE
  5
B4
330
1F
100
AcDbEntity
  8
0
  6
Continuous
 62
     7
370
    25
100
AcDbLine
 10
88.3423830793
 20
8.2499104016
 30
0.0
 11
88.8423830793
 21
8.7499104016
 31
0.0
  0
LINE
  5
B5
330
1F
100
AcDbEntity
  8
0
  6
Continuous
 62
     7
370
    25
100
AcDbLine
 10
45.8423830793
 20
8.7499104016
 30
0.0
 11
46.3423830793
 21
8.2499104016
 31
0.0
  0
LINE
  5
B6
330
1F
100
AcDbEntity
  8
0
  6
Continuous
 62
     7
370
    25
100
AcDbLine
 10
46.3423830793
 20
28.2499104016
 30
0.0
 11
45.8423830793
 21
27.7499104016
 31
0.0
  0
LINE
  5
B7
330
1F
100
AcDbEntity
  8
0
  6
Continuous
 62
     7
370
    25
100
AcDbLine
 10
45.8423830793
 20
12.6724104016
 30
0.0
 11
45.8423830793
 21
8.7499104016
 31
0.0
  0
LINE
  5
B8
330
1F
100
AcDbEntity
  8
0
  6
Continuous
 62
     7
370
    25
100
AcDbLine
 10
45.8423830793
 20
27.7499104016
 30
0.0
 11
45.8423830793
 21
25.8274104016
 31
0.0
  0
LINE
  5
B9
330
1F
100
AcDbEntity
  8
0
  6
Continuous
 62
     7
370
    25
100
AcDbLine
 10
90.8423830793
 20
82.5299104016
 30
0.0
 11
90.3423830793
 21
83.0299104016
 31
0.0
  0
LINE
  5
BA
330
1F
100
AcDbEntity
  8
0
  6
Continuous
 62
     7
370
    25
100
AcDbLine
 10
44.3423830793
 20
83.0299104016
 30
0.0
 11
43.8423830793
 21
82.5299104016
 31
0.0
  0
LINE
  5
BB
330
1F
100
AcDbEntity
  8
0
  6
Continuous
 62
     7
370
    25
100
AcDbLine
 10
43.8423830793
 20
82.5299104016
 30
0.0
 11
43.8423830793
 21
77.5299104016
 31
0.0
  0
LINE
  5
BC
330
1F
100
AcDbEntity
  8
0
  6
Continuous
 62
     7
370
    25
100
AcDbLine
 10
90.8423830793
 20
77.5299104016
 30
0.0
 11
90.8423830793
 21
82.5299104016
 31
0.0
  0
LINE
  5
BD
330
1F
100
AcDbEntity
  8
0
  6
Continuous
 62
     7
370
    25
100
AcDbLine
 10
43.8423830793
 20
77.5299104016
 30
0.0
 11
44.3423830793
 21
77.0299104016
 31
0.0
  0
LINE
  5
BE
330
1F
100
AcDbEntity
  8
0
  6
Continuous
 62
     7
370
    25
100
AcDbLine
 10
90.3423830793
 20
77.0299104016
 30
0.0
 11
90.8423830793
 21
77.5299104016
 31
0.0
  0
ARC
  5
BF
330
1F
100
AcDbEntity
  8
0
  6
Continuous
 62
     7
370
    25
100
AcDbCircle
 10
50.4423830793
 20
76.6299104016
 30
0.0
 40
0.4000000000000057
100
AcDbArc
 50
0.0
 51
90.0
  0
ARC
  5
C0
330
1F
100
AcDbEntity
  8
0
  6
Continuous
 62
     7
370
    25
100
AcDbCircle
 10
84.2423830793
 20
76.6299104016
 30
0.0
 40
0.4000000000000057
100
AcDbArc
 50
90.0
 51
180.0
  0
ARC
  5
C1
330
1F
100
AcDbEntity
  8
0
  6
Continuous
 62
     7
370
    25
100
AcDbCircle
 10
74.7423830793
 20
83.4299104016
 30
0.0
 40
0.4000000000000057
100
AcDbArc
 50
180.0
 51
270.0
  0
LINE
  5
C2
330
1F
100
AcDbEntity
  8
0
  6
Continuous
 62
     7
370
    25
100
AcDbLine
 10
60.3423830793
 20
88.5299104016
 30
0.0
 11
60.3423830793
 21
84.5299104016
 31
0.0
  0
LINE
  5
C3
330
1F
100
AcDbEntity
  8
0
  6
Continuous
 62
     7
370
    25
100
AcDbLine
 10
74.3423830793
 20
83.4299104016
 30
0.0
 11
74.3423830793
 21
88.5299104016
 31
0.0
  0
LINE
  5
C4
330
1F
100
AcDbEntity
  8
0
  6
Continuous
 62
     7
370
    25
100
AcDbLine
 10
74.3423830793
 20
88.5299104016
 30
0.0
 11
73.8423830793
 21
89.0299104016
 31
0.0
  0
LINE
  5
C5
330
1F
100
AcDbEntity
  8
0
  6
Continuous
 62
     7
370
    25
100
AcDbLine
 10
60.8423830793
 20
89.0299104016
 30
0.0
 11
60.3423830793
 21
88.5299104016
 31
0.0
  0
LINE
  5
C6
330
1F
100
AcDbEntity
  8
0
  6
Continuous
 62
     7
370
    25
100
AcDbLine
 10
44.5923830793
 20
76.6299104016
 30
0.0
 11
44.5923830793
 21
75.9899104016
 31
0.0
  0
LINE
  5
C7
330
1F
100
AcDbEntity
  8
0
  6
Continuous
 62
     7
370
    25
100
AcDbLine
 10
90.0923830793
 20
75.9899104016
 30
0.0
 11
90.0923830793
 21
76.6299104016
 31
0.0
  0
LINE
  5
C8
330
1F
100
AcDbEntity
  8
0
  6
Continuous
 62
     7
370
    25
100
AcDbLine
 10
44.5923830793
 20
57.0899104016
 30
0.0
 11
44.5923830793
 21
56.4499104016
 31
0.0
  0
LINE
  5
C9
330
1F
100
AcDbEntity
  8
0
  6
Continuous
 62
     7
370
    25
100
AcDbLine
 10
90.0923830793
 20
56.4499104016
 30
0.0
 11
90.0923830793
 21
57.0899104016
 31
0.0
  0
LINE
  5
CA
330
1F
100
AcDbEntity
  8
0
  6
Continuous
 62
     7
370
    25
100
AcDbLine
 10
43.8423830793
 20
57.9899104016
 30
0.0
 11
44.3423830793
 21
57.4899104016
 31
0.0
  0
LINE
  5
CB
330
1F
100
AcDbEntity
  8
0
  6
Continuous
 62
     7
370
    25
100
AcDbLine
 10
90.3423830793
 20
57.4899104016
 30
0.0
 11
90.8423830793
 21
57.9899104016
 31
0.0
  0
LINE
  5
CC
330
1F
100
AcDbEntity
  8
0
  6
Continuous
 62
     7
370
    25
100
AcDbLine
 10
90.8423830793
 20
70.9899104016
 30
0.0
 11
90.3423830793
 21
71.4899104016
 31
0.0
  0
LINE
  5
CD
330
1F
100
AcDbEntity
  8
0
  6
Continuous
 62
     7
370
    25
100
AcDbLine
 10
44.3423830793
 20
71.4899104016
 30
0.0
 11
43.8423830793
 21
70.9899104016
 31
0.0
  0
LINE
  5
CE
330
1F
100
AcDbEntity
  8
0
  6
Continuous
 62
     7
370
    25
100
AcDbLine
 10
43.8423830793
 20
70.9899104016
 30
0.0
 11
43.8423830793
 21
57.9899104016
 31
0.0
  0
LINE
  5
CF
330
1F
100
AcDbEntity
  8
0
  6
Continuous
 62
     7
370
    25
100
AcDbLine
 10
90.8423830793
 20
68.4935836928
 30
0.0
 11
90.8423830793
 21
70.9899104016
 31
0.0
  0
LINE
  5
D0
330
1F
100
AcDbEntity
  8
0
  6
Continuous
 62
     7
370
    25
100
AcDbLine
 10
90.8423830793
 20
57.9899104016
 30
0.0
 11
90.8423830793
 21
58.685742543
 31
0.0
  0
ARC
  5
D1
330
1F
100
AcDbEntity
  8
0
  6
Continuous
 62
     7
370
    25
100
AcDbCircle
 10
84.1887932408
 20
57.0899104016
 30
0.0
 40
0.3999999999999986
100
AcDbArc
 50
90.0
 51
150.0
  0
ARC
  5
D2
330
1F
100
AcDbEntity
  8
0
  6
Continuous
 62
     7
370
    25
100
AcDbCircle
 10
50.4959729178
 20
57.0899104016
 30
0.0
 40
0.4000000000000057
100
AcDbArc
 50
30.0
 51
90.0
  0
LINE
  5
D3
330
1F
100
AcDbEntity
  8
0
  6
Continuous
 62
     7
370
    25
100
AcDbLine
 10
50.8423830793
 20
57.2899104016
 30
0.0
 11
51.0423830793
 21
57.0899104016
 31
0.0
  0
LINE
  5
D4
330
1F
100
AcDbEntity
  8
0
  6
Continuous
 62
     7
370
    25
100
AcDbLine
 10
83.6423830793
 20
57.0899104016
 30
0.0
 11
83.8423830793
 21
57.2899104016
 31
0.0
  0
LINE
  5
D5
330
1F
100
AcDbEntity
  8
0
  6
Continuous
 62
     7
370
    25
100
AcDbLine
 10
44.5423830793
 20
86.3299104016
 30
0.0
 11
44.5423830793
 21
85.8299104016
 31
0.0
  0
LINE
  5
D6
330
1F
100
AcDbEntity
  8
0
  6
Continuous
 62
     7
370
    25
100
AcDbLine
 10
76.9774119219
 20
84.8299104016
 30
0.0
 11
76.9774119219
 21
83.8299104016
 31
0.0
  0
LINE
  5
D7
330
1F
100
AcDbEntity
  8
0
  6
Continuous
 62
     7
370
    25
100
AcDbLine
 10
84.5774119219
 20
83.8299104016
 30
0.0
 11
84.5774119219
 21
84.4501958755
 31
0.0
  0
LINE
  5
D8
330
1F
100
AcDbEntity
  8
0
  6
Continuous
 62
     7
370
    25
100
AcDbLine
 10
84.5774119219
 20
84.5299104016
 30
0.0
 11
84.5774119219
 21
84.8299104016
 31
0.0
  0
LINE
  5
D9
330
1F
100
AcDbEntity
  8
0
  6
Continuous
 62
     7
370
    25
100
AcDbLine
 10
50.0264751608
 20
84.8299104016
 30
0.0
 11
50.0264751608
 21
84.5299104016
 31
0.0
  0
LINE
  5
DA
330
1F
100
AcDbEntity
  8
0
  6
Continuous
 62
     7
370
    25
100
AcDbLine
 10
57.6264751608
 20
84.5299104016
 30
0.0
 11
57.6264751608
 21
84.8299104016
 31
0.0
  0
LINE
  5
DB
330
1F
100
AcDbEntity
  8
0
  6
Continuous
 62
     7
370
    25
100
AcDbLine
 10
57.7073542368
 20
84.5299104016
 30
0.0
 11
57.7073542368
 21
84.8299104016
 31
0.0
  0
LINE
  5
DC
330
1F
100
AcDbEntity
  8
0
  6
Continuous
 62
     7
370
    25
100
AcDbLine
 10
107.2413830793
 20
12.6714104016
 30
0.0
 11
108.5698830793
 21
13.9999104016
 31
0.0
  0
LINE
  5
DD
330
1F
100
AcDbEntity
  8
0
  6
Continuous
 62
     7
370
    25
100
AcDbLine
 10
108.5698830793
 20
24.4999104016
 30
0.0
 11
107.2413830793
 21
25.8284104016
 31
0.0
  0
LINE
  5
DE
330
1F
100
AcDbEntity
  8
0
  6
Continuous
 62
     7
370
    25
100
AcDbLine
 10
101.2983830793
 20
12.6714104016
 30
0.0
 11
107.2413830793
 21
12.6714104016
 31
0.0
  0
LINE
  5
DF
330
1F
100
AcDbEntity
  8
0
  6
Continuous
 62
     7
370
    25
100
AcDbLine
 10
107.2413830793
 20
25.8284104016
 30
0.0
 11
101.2983830793
 21
25.8284104016
 31
0.0
  0
LINE
  5
E0
330
1F
100
AcDbEntity
  8
0
  6
Continuous
 62
     7
370
    25
100
AcDbLine
 10
101.2983830793
 20
25.8284104016
 30
0.0
 11
99.7198830793
 21
24.2499104016
 31
0.0
  0
LINE
  5
E1
330
1F
100
AcDbEntity
  8
0
  6
Continuous
 62
     7
370
    25
100
AcDbLine
 10
99.7198830793
 20
14.2499104016
 30
0.0
 11
101.2983830793
 21
12.6714104016
 31
0.0
  0
LINE
  5
E2
330
1F
100
AcDbEntity
  8
0
  6
Continuous
 62
     7
370
    25
100
AcDbLine
 10
88.8423830793
 20
12.6724104016
 30
0.0
 11
90.4198830793
 21
14.2499104016
 31
0.0
  0
LINE
  5
E3
330
1F
100
AcDbEntity
  8
0
  6
Continuous
 62
     7
370
    25
100
AcDbLine
 10
90.4198830793
 20
24.2499104016
 30
0.0
 11
88.8423830793
 21
25.8274104016
 31
0.0
  0
ARC
  5
E4
330
1F
100
AcDbEntity
  8
0
  6
Continuous
 62
     7
370
    25
100
AcDbCircle
 10
97.9698830793
 20
24.6499104016
 30
0.0
 40
0.4000000000000057
100
AcDbArc
 50
180.0
 51
270.0
  0
ARC
  5
E5
330
1F
100
AcDbEntity
  8
0
  6
Continuous
 62
     7
370
    25
100
AcDbCircle
 10
97.9698830793
 20
13.8499104016
 30
0.0
 40
0.4000000000000057
100
AcDbArc
 50
90.0
 51
180.0
  0
ARC
  5
E6
330
1F
100
AcDbEntity
  8
0
  6
Continuous
 62
     7
370
    25
100
AcDbCircle
 10
92.1698830793
 20
13.8499104016
 30
0.0
 40
0.4000000000000057
100
AcDbArc
 50
0.0
 51
90.0
  0
ARC
  5
E7
330
1F
100
AcDbEntity
  8
0
  6
Continuous
 62
     7
370
    25
100
AcDbCircle
 10
92.1698830793
 20
24.6499104016
 30
0.0
 40
0.3999999999999986
100
AcDbArc
 50
270.0
 51
0.0
  0
LINE
  5
E8
330
1F
100
AcDbEntity
  8
0
  6
Continuous
 62
     7
370
    25
100
AcDbLine
 10
97.9698830793
 20
14.2499104016
 30
0.0
 11
99.7198830793
 21
14.2499104016
 31
0.0
  0
LINE
  5
E9
330
1F
100
AcDbEntity
  8
0
  6
Continuous
 62
     7
370
    25
100
AcDbLine
 10
99.7198830793
 20
24.2499104016
 30
0.0
 11
97.9698830793
 21
24.2499104016
 31
0.0
  0
LINE
  5
EA
330
1F
100
AcDbEntity
  8
0
  6
Continuous
 62
     7
370
    25
100
AcDbLine
 10
90.4198830793
 20
14.2499104016
 30
0.0
 11
92.1698830793
 21
14.2499104016
 31
0.0
  0
LINE
  5
EB
330
1F
100
AcDbEntity
  8
0
  6
Continuous
 62
     7
370
    25
100
AcDbLine
 10
92.1698830793
 20
24.2499104016
 30
0.0
 11
90.4198830793
 21
24.2499104016
 31
0.0
  0
LINE
  5
EC
330
1F
100
AcDbEntity
  8
0
  6
Continuous
 62
     7
370
    25
100
AcDbLine
 10
97.5698830793
 20
26.2499104016
 30
0.0
 11
97.1368703774
 21
26.9999104016
 31
0.0
  0
LINE
  5
ED
330
1F
100
AcDbEntity
  8
0
  6
Continuous
 62
     7
370
    25
100
AcDbLine
 10
93.0028957812
 20
26.9999104016
 30
0.0
 11
92.5698830793
 21
26.2499104016
 31
0.0
  0
LINE
  5
EE
330
1F
100
AcDbEntity
  8
0
  6
Continuous
 62
     7
370
    25
100
AcDbLine
 10
97.1368703774
 20
11.4999104016
 30
0.0
 11
97.5698830793
 21
12.2499104016
 31
0.0
  0
LINE
  5
EF
330
1F
100
AcDbEntity
  8
0
  6
Continuous
 62
     7
370
    25
100
AcDbLine
 10
92.5698830793
 20
12.2499104016
 30
0.0
 11
93.0028957812
 21
11.4999104016
 31
0.0
  0
LINE
  5
F0
330
1F
100
AcDbEntity
  8
0
  6
Continuous
 62
     7
370
    25
100
AcDbLine
 10
97.1368703774
 20
26.9999104016
 30
0.0
 11
93.0028957812
 21
26.9999104016
 31
0.0
  0
LINE
  5
F1
330
1F
100
AcDbEntity
  8
0
  6
Continuous
 62
     7
370
    25
100
AcDbLine
 10
93.0028957812
 20
11.4999104016
 30
0.0
 11
97.1368703774
 21
11.4999104016
 31
0.0
  0
LINE
  5
F2
330
1F
100
AcDbEntity
  8
0
  6
Continuous
 62
     7
370
    25
100
AcDbLine
 10
52.7143528538
 20
70.7399104016
 30
0.0
 11
52.7143528538
 21
58.2399104016
 31
0.0
  0
LINE
  5
F3
330
1F
100
AcDbEntity
  8
0
  6
Continuous
 62
     7
370
    25
100
AcDbLine
 10
81.9704133049
 20
70.7399104016
 30
0.0
 11
81.9704133049
 21
58.2399104016
 31
0.0
  0
LINE
  5
F4
330
1F
100
AcDbEntity
  8
0
  6
Continuous
 62
     7
370
    25
100
AcDbLine
 10
52.7143528538
 20
58.2399104016
 30
0.0
 11
81.9704133049
 21
58.2399104016
 31
0.0
  0
LINE
  5
F5
330
1F
100
AcDbEntity
  8
0
  6
Continuous
 62
     7
370
    25
100
AcDbLine
 10
52.7143528538
 20
70.7399104016
 30
0.0
 11
81.9704133049
 21
70.7399104016
 31
0.0
  0
SPLINE
  5
F6
330
1F
100
AcDbEntity
  8
0
  6
Continuous
 62
     7
370
    25
100
AcDbSpline
210
0.0
220
0.0
230
1.0
 70
     8
 71
     3
 72
    11
 73
     7
 74
     0
 42
0.000000001
 43
0.00000001
 40
0.0
 40
0.0
 40
0.0
 40
0.0
 40
0.2214209950479323
 40
0.4436485711746004
 40
0.7212663669008818
 40
1.0
 40
1.0
 40
1.0
 40
1.0
 10
42.11488307930657
 20
19.24991040156947
 30
0.0
 10
42.11049156898724
 20
19.49809740596508
 30
0.0
 10
42.1016925511793
 20
19.99537549768523
 30
0.0
 10
42.02477517616333
 20
20.80063666215774
 30
0.0
 10
41.89354081938046
 20
21.66403526115421
 30
0.0
 10
41.75252146914018
 20
22.27156830771659
 30
0.0
 10
41.68187037741435
 20
22.57594407548199
 30
0.0
  0
SPLINE
  5
F7
330
1F
100
AcDbEntity
  8
0
  6
Continuous
 62
     7
370
    25
100
AcDbSpline
210
0.0
220
0.0
230
1.0
 70
     8
 71
     3
 72
    10
 73
     6
 74
     0
 42
0.000000001
 43
0.00000001
 40
0.0
 40
0.0
 40
0.0
 40
0.0
 40
0.2372861409041377
 40
0.6168892495779038
 40
1.0
 40
1.0
 40
1.0
 40
1.0
 10
41.68187037741475
 20
15.9238767276565
 30
0.0
 10
41.74215986585593
 20
16.18280714384442
 30
0.0
 10
41.89889863340554
 20
16.85596651811899
 30
0.0
 10
42.07431133936461
 20
17.96569045233643
 30
0.0
 10
42.10131776607626
 20
18.82052665088822
 30
0.0
 10
42.11488307930657
 20
19.24991040156947
 30
0.0
  0
LINE
  5
F8
330
1F
100
AcDbEntity
  8
0
  6
Continuous
 62
     7
370
    25
100
AcDbLine
 10
41.6818703774
 20
15.9238767277
 30
0.0
 11
37.5478957812
 21
15.9238767277
 31
0.0
  0
SPLINE
  5
F9
330
1F
100
AcDbEntity
  8
0
  6
Continuous
 62
     7
370
    25
100
AcDbSpline
210
0.0
220
0.0
230
1.0
 70
     8
 71
     3
 72
    13
 73
     9
 74
     0
 42
0.000000001
 43
0.00000001
 40
0.0
 40
0.0
 40
0.0
 40
0.0
 40
0.1894878384382384
 40
0.3794858690540512
 40
0.5709115750897096
 40
0.7627551278817606
 40
0.8813426172843913
 40
0.9999999999999999
 40
0.9999999999999999
 40
0.9999999999999999
 40
0.9999999999999999
 10
37.11488307930657
 20
19.24991040156947
 30
0.0
 10
37.11811449297482
 20
19.03751715149112
 30
0.0
 10
37.12458602082737
 20
18.61215878679867
 30
0.0
 10
37.1765539096714
 20
17.97399370659334
 30
0.0
 10
37.25796347971011
 20
17.33649204694152
 30
0.0
 10
37.35577496828397
 20
16.78240446025329
 30
0.0
 10
37.45444137843685
 20
16.31167333384607
 30
0.0
 10
37.51673819597849
 20
16.05316764866494
 30
0.0
 10
37.54789578119838
 20
15.9238767276565
 30
0.0
  0
SPLINE
  5
FA
330
1F
100
AcDbEntity
  8
0
  6
Continuous
 62
     7
370
    25
100
AcDbSpline
210
0.0
220
0.0
230
1.0
 70
     8
 71
     3
 72
    11
 73
     7
 74
     0
 42
0.000000001
 43
0.00000001
 40
0.0
 40
0.0
 40
0.0
 40
0.0
 40
0.2776723350003071
 40
0.5563513941844207
 40
0.7777840963828321
 40
1.0
 40
1.0
 40
1.0
 40
1.0
 10
37.54789578119876
 20
22.57594407548199
 30
0.0
 10
37.47749883102468
 20
22.27273180052679
 30
0.0
 10
37.33644970066879
 20
21.66520792925249
 30
0.0
 10
37.20523821670008
 20
20.80270222505932
 30
0.0
 10
37.12813146610807
 20
19.99626767012249
 30
0.0
 10
37.11930440256806
 20
19.49898878388788
 30
0.0
 10
37.11488307930657
 20
19.24991040156947
 30
0.0
  0
LINE
  5
FB
330
1F
100
AcDbEntity
  8
0
  6
Continuous
 62
     7
370
    25
100
AcDbLine
 10
37.5478957812
 20
22.5759440755
 30
0.0
 11
41.6818703774
 21
22.5759440755
 31
0.0
  0
LINE
  5
FC
330
1F
100
AcDbEntity
  8
0
  6
Continuous
 62
     7
370
    25
100
AcDbLine
 10
37.1148830793
 20
19.2499104016
 30
0.0
 11
37.1148830793
 21
25.3120882281
 31
0.0
  0
SPLINE
  5
FD
330
1F
100
AcDbEntity
  8
0
  6
Continuous
 62
     7
370
    25
100
AcDbSpline
210
0.0
220
0.0
230
1.0
 70
     8
 71
     3
 72
    10
 73
     6
 74
     0
 42
0.000000001
 43
0.00000001
 40
0.0
 40
0.0
 40
0.0
 40
0.0
 40
0.2538172255998928
 40
0.6254155652320262
 40
1.0
 40
1.0
 40
1.0
 40
1.0
 10
37.11488307930657
 20
25.31208822806052
 30
0.0
 10
37.12102405175098
 20
25.16988262996034
 30
0.0
 10
37.13615564789589
 20
24.81948247762717
 30
0.0
 10
37.27152236409563
 20
24.26180160593533
 30
0.0
 10
37.45552585871744
 20
23.85385896814103
 30
0.0
 10
37.54789578119876
 20
23.64907139110432
 30
0.0
  0
LINE
  5
FE
330
1F
100
AcDbEntity
  8
0
  6
Continuous
 62
     7
370
    25
100
AcDbLine
 10
37.5478957812
 20
23.6490713911
 30
0.0
 11
37.5478957812
 21
22.5759440755
 31
0.0
  0
LINE
  5
FF
330
1F
100
AcDbEntity
  8
0
  6
Continuous
 62
     7
370
    25
100
AcDbLine
 10
41.6818703774
 20
22.5759440755
 30
0.0
 11
41.6818703774
 21
23.6490713911
 31
0.0
  0
LINE
  5
100
330
1F
100
AcDbEntity
  8
0
  6
Continuous
 62
     7
370
    25
100
AcDbLine
 10
41.6818703774
 20
23.6490713911
 30
0.0
 11
37.5478957812
 21
23.6490713911
 31
0.0
  0
SPLINE
  5
101
330
1F
100
AcDbEntity
  8
0
  6
Continuous
 62
     7
370
    25
100
AcDbSpline
210
0.0
220
0.0
230
1.0
 70
     8
 71
     3
 72
     9
 73
     5
 74
     0
 42
0.000000001
 43
0.00000001
 40
0.0
 40
0.0
 40
0.0
 40
0.0
 40
0.4965134544262715
 40
1.0
 40
1.0
 40
1.0
 40
1.0
 10
41.68187037741435
 20
23.64907139110432
 30
0.0
 10
41.80438847397252
 20
23.92098683690397
 30
0.0
 10
42.05114532510308
 20
24.46863653979844
 30
0.0
 10
42.09353862379348
 20
25.02963370385371
 30
0.0
 10
42.11488307930657
 20
25.31208822806055
 30
0.0
  0
LINE
  5
102
330
1F
100
AcDbEntity
  8
0
  6
Continuous
 62
     7
370
    25
100
AcDbLine
 10
42.1148830793
 20
25.3120882281
 30
0.0
 11
42.1148830793
 21
19.2499104016
 31
0.0
  0
SPLINE
  5
103
330
1F
100
AcDbEntity
  8
0
  6
Continuous
 62
     7
370
    25
100
AcDbSpline
210
0.0
220
0.0
230
1.0
 70
     8
 71
     3
 72
     9
 73
     5
 74
     0
 42
0.000000001
 43
0.00000001
 40
0.0
 40
0.0
 40
0.0
 40
0.0
 40
0.4965134544262714
 40
1.0
 40
1.0
 40
1.0
 40
1.0
 10
37.54789578119877
 20
14.85074941203463
 30
0.0
 10
37.42537768464058
 20
14.57883396623496
 30
0.0
 10
37.17862083351003
 20
14.03118426334048
 30
0.0
 10
37.13622753481965
 20
13.47018709928525
 30
0.0
 10
37.11488307930657
 20
13.18773257507842
 30
0.0
  0
LINE
  5
104
330
1F
100
AcDbEntity
  8
0
  6
Continuous
 62
     7
370
    25
100
AcDbLine
 10
37.1148830793
 20
13.1877325751
 30
0.0
 11
37.1148830793
 21
19.2499104016
 31
0.0
  0
LINE
  5
105
330
1F
100
AcDbEntity
  8
0
  6
Continuous
 62
     7
370
    25
100
AcDbLine
 10
37.5478957812
 20
15.9238767277
 30
0.0
 11
37.5478957812
 21
14.850749412
 31
0.0
  0
SPLINE
  5
106
330
1F
100
AcDbEntity
  8
0
  6
Continuous
 62
     7
370
    25
100
AcDbSpline
210
0.0
220
0.0
230
1.0
 70
     8
 71
     3
 72
    10
 73
     6
 74
     0
 42
0.000000001
 43
0.00000001
 40
0.0
 40
0.0
 40
0.0
 40
0.0
 40
0.2538172255998956
 40
0.6254155652320272
 40
1.0
 40
1.0
 40
1.0
 40
1.0
 10
42.11488307930657
 20
13.18773257507839
 30
0.0
 10
42.10874210686215
 20
13.32993817317859
 30
0.0
 10
42.09361051071723
 20
13.6803383255118
 30
0.0
 10
41.95824379451749
 20
14.23801919720361
 30
0.0
 10
41.77424029989568
 20
14.64596183499791
 30
0.0
 10
41.68187037741436
 20
14.85074941203463
 30
0.0
  0
LINE
  5
107
330
1F
100
AcDbEntity
  8
0
  6
Continuous
 62
     7
370
    25
100
AcDbLine
 10
41.6818703774
 20
14.850749412
 30
0.0
 11
41.6818703774
 21
15.9238767277
 31
0.0
  0
LINE
  5
108
330
1F
100
AcDbEntity
  8
0
  6
Continuous
 62
     7
370
    25
100
AcDbLine
 10
42.1148830793
 20
19.2499104016
 30
0.0
 11
42.1148830793
 21
13.1877325751
 31
0.0
  0
LINE
  5
109
330
1F
100
AcDbEntity
  8
0
  6
Continuous
 62
     7
370
    25
100
AcDbLine
 10
37.5478957812
 20
14.850749412
 30
0.0
 11
41.6818703774
 21
14.850749412
 31
0.0
  0
LINE
  5
10A
330
1F
100
AcDbEntity
  8
0
  6
Continuous
 62
     7
370
    25
100
AcDbLine
 10
45.8433830793
 20
25.8251414431
 30
0.0
 11
45.8433830793
 21
12.67467936
 31
0.0
  0
LINE
  5
10B
330
1F
100
AcDbEntity
  8
0
  6
Continuous
 62
     7
370
    25
100
AcDbLine
 10
44.2648830793
 20
24.2499104016
 30
0.0
 11
44.2648830793
 21
14.2499104016
 31
0.0
  0
SPLINE
  5
10C
330
1F
100
AcDbEntity
  8
0
  6
Continuous
 62
     7
370
    25
100
AcDbSpline
210
0.0
220
0.0
230
1.0
 70
     8
 71
     3
 72
    10
 73
     6
 74
     0
 42
0.000000001
 43
0.00000001
 40
0.0
 40
0.0
 40
0.0
 40
0.0
 40
0.2538172255998933
 40
0.6254155652320263
 40
1.0
 40
1.0
 40
1.0
 40
1.0
 10
42.11488307930657
 20
25.31208822806055
 30
0.0
 10
42.10874210686215
 20
25.45429382616075
 30
0.0
 10
42.09361051071722
 20
25.80469397849396
 30
0.0
 10
41.95824379451749
 20
26.36237485018577
 30
0.0
 10
41.77424029989568
 20
26.77031748798008
 30
0.0
 10
41.68187037741436
 20
26.9751050650168
 30
0.0
  0
SPLINE
  5
10D
330
1F
100
AcDbEntity
  8
0
  6
Continuous
 62
     7
370
    25
100
AcDbSpline
210
0.0
220
0.0
230
1.0
 70
     8
 71
     3
 72
     9
 73
     5
 74
     0
 42
0.000000001
 43
0.00000001
 40
0.0
 40
0.0
 40
0.0
 40
0.0
 40
0.4965134544262712
 40
1.0
 40
1.0
 40
1.0
 40
1.0
 10
37.54789578119877
 20
26.9751050650168
 30
0.0
 10
37.42537768464059
 20
26.70318961921714
 30
0.0
 10
37.17862083351003
 20
26.15553991632266
 30
0.0
 10
37.13622753481965
 20
25.59454275226738
 30
0.0
 10
37.11488307930657
 20
25.31208822806052
 30
0.0
  0
LINE
  5
10E
330
1F
100
AcDbEntity
  8
0
  6
Continuous
 62
     7
370
    25
100
AcDbLine
 10
37.5478957812
 20
26.975105065
 30
0.0
 11
41.6818703774
 21
26.975105065
 31
0.0
  0
SPLINE
  5
10F
330
1F
100
AcDbEntity
  8
0
  6
Continuous
 62
     7
370
    25
100
AcDbSpline
210
0.0
220
0.0
230
1.0
 70
     8
 71
     3
 72
     9
 73
     5
 74
     0
 42
0.000000001
 43
0.00000001
 40
0.0
 40
0.0
 40
0.0
 40
0.0
 40
0.4965134544262715
 40
1.0
 40
1.0
 40
1.0
 40
1.0
 10
41.68187037741436
 20
11.52471573812215
 30
0.0
 10
41.80438847397252
 20
11.79663118392181
 30
0.0
 10
42.05114532510308
 20
12.34428088681629
 30
0.0
 10
42.09353862379346
 20
12.90527805087154
 30
0.0
 10
42.11488307930657
 20
13.18773257507839
 30
0.0
  0
LINE
  5
110
330
1F
100
AcDbEntity
  8
0
  6
Continuous
 62
     7
370
    25
100
AcDbLine
 10
41.6818703774
 20
11.5247157381
 30
0.0
 11
37.5478957812
 21
11.5247157381
 31
0.0
  0
SPLINE
  5
111
330
1F
100
AcDbEntity
  8
0
  6
Continuous
 62
     7
370
    25
100
AcDbSpline
210
0.0
220
0.0
230
1.0
 70
     8
 71
     3
 72
    10
 73
     6
 74
     0
 42
0.000000001
 43
0.00000001
 40
0.0
 40
0.0
 40
0.0
 40
0.0
 40
0.2538172255998959
 40
0.6254155652320275
 40
1.0
 40
1.0
 40
1.0
 40
1.0
 10
37.11488307930657
 20
13.18773257507842
 30
0.0
 10
37.12102405175098
 20
13.04552697697821
 30
0.0
 10
37.1361556478959
 20
12.69512682464497
 30
0.0
 10
37.27152236409563
 20
12.13744595295318
 30
0.0
 10
37.45552585871744
 20
11.72950331515887
 30
0.0
 10
37.54789578119877
 20
11.52471573812215
 30
0.0
  0
LINE
  5
112
330
1F
100
AcDbEntity
  8
0
  6
Continuous
 62
     7
370
    25
100
AcDbLine
 10
41.6818703774
 20
26.975105065
 30
0.0
 11
41.6818703774
 21
26.9999104016
 31
0.0
  0
LINE
  5
113
330
1F
100
AcDbEntity
  8
0
  6
Continuous
 62
     7
370
    25
100
AcDbLine
 10
42.1148830793
 20
26.2499104016
 30
0.0
 11
42.1148830793
 21
25.3120882281
 31
0.0
  0
LINE
  5
114
330
1F
100
AcDbEntity
  8
0
  6
Continuous
 62
     7
370
    25
100
AcDbLine
 10
41.6818703774
 20
11.4999104016
 30
0.0
 11
41.6818703774
 21
11.5247157381
 31
0.0
  0
LINE
  5
115
330
1F
100
AcDbEntity
  8
0
  6
Continuous
 62
     7
370
    25
100
AcDbLine
 10
42.1148830793
 20
13.1877325751
 30
0.0
 11
42.1148830793
 21
12.2499104016
 31
0.0
  0
LINE
  5
116
330
1F
100
AcDbEntity
  8
0
  6
Continuous
 62
     7
370
    25
100
AcDbLine
 10
37.5478957812
 20
26.9999104016
 30
0.0
 11
37.5478957812
 21
26.975105065
 31
0.0
  0
LINE
  5
117
330
1F
100
AcDbEntity
  8
0
  6
Continuous
 62
     7
370
    25
100
AcDbLine
 10
37.1148830793
 20
25.3120882281
 30
0.0
 11
37.1148830793
 21
26.2499104016
 31
0.0
  0
LINE
  5
118
330
1F
100
AcDbEntity
  8
0
  6
Continuous
 62
     7
370
    25
100
AcDbLine
 10
37.5478957812
 20
11.5247157381
 30
0.0
 11
37.5478957812
 21
11.4999104016
 31
0.0
  0
LINE
  5
119
330
1F
100
AcDbEntity
  8
0
  6
Continuous
 62
     7
370
    25
100
AcDbLine
 10
37.1148830793
 20
12.2499104016
 30
0.0
 11
37.1148830793
 21
13.1877325751
 31
0.0
  0
LINE
  5
11A
330
1F
100
AcDbEntity
  8
0
  6
Continuous
 62
     7
370
    25
100
AcDbLine
 10
90.4423830793
 20
61.1676298597
 30
0.0
 11
90.4423830793
 21
66.0257620466
 31
0.0
  0
LINE
  5
11B
330
1F
100
AcDbEntity
  8
0
  6
Continuous
 62
     7
370
    25
100
AcDbLine
 10
43.8423830793
 20
46.8499104016
 30
0.0
 11
90.8423830793
 21
46.8499104016
 31
0.0
  0
LINE
  5
11C
330
1F
100
AcDbEntity
  8
0
  6
Continuous
 62
     7
370
    25
100
AcDbLine
 10
67.3423830793
 20
56.4499104016
 30
0.0
 11
90.3423830793
 21
56.4499104016
 31
0.0
  0
LINE
  5
11D
330
1F
100
AcDbEntity
  8
0
  6
Continuous
 62
     7
370
    25
100
AcDbLine
 10
44.3423830793
 20
56.4499104016
 30
0.0
 11
67.3423830793
 21
56.4499104016
 31
0.0
  0
LINE
  5
11E
330
1F
100
AcDbEntity
  8
0
  6
Continuous
 62
     7
370
    25
100
AcDbLine
 10
67.3423830793
 20
55.9499104016
 30
0.0
 11
43.8423830793
 21
55.9499104016
 31
0.0
  0
LINE
  5
11F
330
1F
100
AcDbEntity
  8
0
  6
Continuous
 62
     7
370
    25
100
AcDbLine
 10
90.8423830793
 20
55.9499104016
 30
0.0
 11
67.3423830793
 21
55.9499104016
 31
0.0
  0
SPLINE
  5
120
330
1F
100
AcDbEntity
  8
0
  6
Continuous
 62
     7
370
    25
100
AcDbSpline
210
0.0
220
0.0
230
1.0
 70
     8
 71
     3
 72
    12
 73
     8
 74
     0
 42
0.000000001
 43
0.00000001
 40
0.0
 40
0.0
 40
0.0
 40
0.0
 40
0.2143084461002322
 40
0.4285980598074061
 40
0.643376109833169
 40
0.8584747659781717
 40
1.0
 40
1.0
 40
1.0
 40
1.0
 10
90.75712202724276
 20
50.84991040156956
 30
0.0
 10
90.75904757794504
 20
51.07422900754899
 30
0.0
 10
90.76289851014148
 20
51.52284650747021
 30
0.0
 10
90.78994343655246
 20
52.12240179617498
 30
0.0
 10
90.81925397715291
 20
52.57081417515487
 30
0.0
 10
90.84031927074713
 20
52.82593332877576
 30
0.0
 10
90.84026132612728
 20
52.82488948346507
 30
0.0
 10
90.84023833096035
 20
52.82447523625407
 30
0.0
  0
SPLINE
  5
121
330
1F
100
AcDbEntity
  8
0
  6
Continuous
 62
     7
370
    25
100
AcDbSpline
210
0.0
220
0.0
230
1.0
 70
     8
 71
     3
 72
    13
 73
     9
 74
     0
 42
0.000000001
 43
0.00000001
 40
0.0
 40
0.0
 40
0.0
 40
0.0
 40
0.0032797634844976
 40
0.2172482250317523
 40
0.4312064150118059
 40
0.6458327999511787
 40
0.8607709641864862
 40
0.9999999999999999
 40
0.9999999999999999
 40
0.9999999999999999
 40
0.9999999999999999
 10
90.84224245749918
 20
48.85160816115128
 30
0.0
 10
90.84228927409218
 20
48.85104286026935
 30
0.0
 10
90.84539035798993
 20
48.81359790004971
 30
0.0
 10
90.83403716678477
 20
48.94643182397992
 30
0.0
 10
90.8099300371156
 20
49.25798780584285
 30
0.0
 10
90.77949457304084
 20
49.77526477125797
 30
0.0
 10
90.76001930275575
 20
50.33426737681541
 30
0.0
 10
90.75793959504495
 20
50.70440365477606
 30
0.0
 10
90.75712202724276
 20
50.84991040156956
 30
0.0
  0
LINE
  5
122
330
1F
100
AcDbEntity
  8
0
  6
Continuous
 62
     7
370
    25
100
AcDbLine
 10
44.3423830793
 20
75.9899104016
 30
0.0
 11
90.3423830793
 21
75.9899104016
 31
0.0
  0
LINE
  5
123
330
1F
100
AcDbEntity
  8
0
  6
Continuous
 62
     7
370
    25
100
AcDbLine
 10
90.8423830793
 20
75.4899104016
 30
0.0
 11
43.8423830793
 21
75.4899104016
 31
0.0
  0
LINE
  5
124
330
1F
100
AcDbEntity
  8
0
  6
Continuous
 62
     7
370
    25
100
AcDbLine
 10
50.7253737214
 20
71.9899104016
 30
0.0
 11
90.8423830793
 21
71.9899104016
 31
0.0
  0
LINE
  5
125
330
1F
100
AcDbEntity
  8
0
  6
Continuous
 62
     7
370
    25
100
AcDbLine
 10
43.8423830793
 20
71.9899104016
 30
0.0
 11
50.7253737214
 21
71.9899104016
 31
0.0
  0
LINE
  5
126
330
1F
100
AcDbEntity
  8
0
  6
Continuous
 62
     7
370
    25
100
AcDbLine
 10
51.078927112
 20
71.4899104016
 30
0.0
 11
44.3423830793
 21
71.4899104016
 31
0.0
  0
LINE
  5
127
330
1F
100
AcDbEntity
  8
0
  6
Continuous
 62
     7
370
    25
100
AcDbLine
 10
90.3423830793
 20
71.4899104016
 30
0.0
 11
51.078927112
 21
71.4899104016
 31
0.0
  0
LINE
  5
128
330
1F
100
AcDbEntity
  8
0
  6
Continuous
 62
     7
370
    25
100
AcDbLine
 10
59.3423830793
 20
44.4499104016
 30
0.0
 11
59.3423830793
 21
28.2499104016
 31
0.0
  0
LINE
  5
129
330
1F
100
AcDbEntity
  8
0
  6
Continuous
 62
     7
370
    25
100
AcDbLine
 10
75.3423830793
 20
44.4499104016
 30
0.0
 11
59.3423830793
 21
44.4499104016
 31
0.0
  0
LINE
  5
12A
330
1F
100
AcDbEntity
  8
0
  6
Continuous
 62
     7
370
    25
100
AcDbLine
 10
75.3423830793
 20
28.2499104016
 30
0.0
 11
75.3423830793
 21
44.4499104016
 31
0.0
  0
LINE
  5
12B
330
1F
100
AcDbEntity
  8
0
  6
Continuous
 62
     7
370
    25
100
AcDbLine
 10
75.3423830793
 20
28.2499104016
 30
0.0
 11
59.3423830793
 21
28.2499104016
 31
0.0
  0
LINE
  5
12C
330
1F
100
AcDbEntity
  8
0
  6
Continuous
 62
     7
370
    25
100
AcDbLine
 10
76.3423830793
 20
44.4499104016
 30
0.0
 11
76.3423830793
 21
28.2499104016
 31
0.0
  0
LINE
  5
12D
330
1F
100
AcDbEntity
  8
0
  6
Continuous
 62
     7
370
    25
100
AcDbLine
 10
76.3423830793
 20
28.2499104016
 30
0.0
 11
75.3423830793
 21
28.2499104016
 31
0.0
  0
LINE
  5
12E
330
1F
100
AcDbEntity
  8
0
  6
Continuous
 62
     7
370
    25
100
AcDbLine
 10
75.3423830793
 20
44.4499104016
 30
0.0
 11
76.3423830793
 21
44.4499104016
 31
0.0
  0
LINE
  5
12F
330
1F
100
AcDbEntity
  8
0
  6
Continuous
 62
     7
370
    25
100
AcDbLine
 10
59.3423830793
 20
28.2499104016
 30
0.0
 11
58.3423830793
 21
28.2499104016
 31
0.0
  0
LINE
  5
130
330
1F
100
AcDbEntity
  8
0
  6
Continuous
 62
     7
370
    25
100
AcDbLine
 10
58.3423830793
 20
28.2499104016
 30
0.0
 11
58.3423830793
 21
44.4499104016
 31
0.0
  0
LINE
  5
131
330
1F
100
AcDbEntity
  8
0
  6
Continuous
 62
     7
370
    25
100
AcDbLine
 10
58.3423830793
 20
44.4499104016
 30
0.0
 11
59.3423830793
 21
44.4499104016
 31
0.0
  0
SPLINE
  5
132
330
1F
100
AcDbEntity
  8
0
  6
Continuous
 62
     7
370
    25
100
AcDbSpline
210
0.0
220
0.0
230
1.0
 70
     8
 71
     3
 72
    10
 73
     6
 74
     0
 42
0.000000001
 43
0.00000001
 40
0.0
 40
0.0
 40
0.0
 40
0.0
 40
0.5
 40
0.5
 40
1.0
 40
1.0
 40
1.0
 40
1.0
 10
56.94579750647015
 20
36.74322861393429
 30
0.0
 10
56.77178223891327
 20
36.82882099922794
 30
0.0
 10
56.582313038408
 20
36.89059661666253
 30
0.0
 10
56.17150940475909
 20
36.9743817600596
 30
0.0
 10
55.94856043275269
 20
36.99595891605292
 30
0.0
 10
55.71526443523879
 20
36.9994031919887
 30
0.0
  0
SPLINE
  5
133
330
1F
100
AcDbEntity
  8
0
  6
Continuous
 62
     7
370
    25
100
AcDbSpline
210
0.0
220
0.0
230
1.0
 70
     8
 71
     3
 72
    12
 73
     8
 74
     0
 42
0.000000001
 43
0.00000001
 40
0.0
 40
0.0
 40
0.0
 40
0.0
 40
0.249999999999999
 40
0.249999999999999
 40
0.499999999999998
 40
0.499999999999998
 40
1.0
 40
1.0
 40
1.0
 40
1.0
 10
57.13996997624575
 20
44.44991040156957
 30
0.0
 10
57.03659344280861
 20
44.44991040156957
 30
0.0
 10
56.92930792642169
 20
44.46627919369168
 30
0.0
 10
56.70619244116575
 20
44.51550901915937
 30
0.0
 10
56.58987410180269
 20
44.54894659179657
 30
0.0
 10
56.2315644771513
 20
44.66283739275611
 30
0.0
 10
55.97930343256279
 20
44.75681078998664
 30
0.0
 10
55.71526443523878
 20
44.84991040156956
 30
0.0
  0
SPLINE
  5
134
330
1F
100
AcDbEntity
  8
0
  6
Continuous
 62
     7
370
    25
100
AcDbSpline
210
0.0
220
0.0
230
1.0
 70
     8
 71
     3
 72
    16
 73
    12
 74
     0
 42
0.000000001
 43
0.00000001
 40
0.0
 40
0.0
 40
0.0
 40
0.0
 40
0.2500000000000002
 40
0.2500000000000002
 40
0.5000000000000003
 40
0.5000000000000003
 40
0.7500000000000004
 40
0.7500000000000004
 40
0.8750000000000002
 40
0.8750000000000002
 40
1.0
 40
1.0
 40
1.0
 40
1.0
 10
56.94579750647014
 20
36.74322861393429
 30
0.0
 10
57.19211522277871
 20
36.62207303273194
 30
0.0
 10
57.39842801370703
 20
36.47173354462139
 30
0.0
 10
57.74986960704658
 20
36.13418623258418
 30
0.0
 10
57.8946705469033
 20
35.94527958777105
 30
0.0
 10
58.12041842403133
 20
35.55420206058051
 30
0.0
 10
58.20327215774064
 20
35.350314527496
 30
0.0
 10
58.28662316072644
 20
35.03604147593146
 30
0.0
 10
58.30753368621447
 20
34.92970679551848
 30
0.0
 10
58.33543758838432
 20
34.71525122388833
 30
0.0
 10
58.34238307930657
 20
34.60666678752577
 30
0.0
 10
58.34238307930657
 20
34.49991040156957
 30
0.0
  0
LINE
  5
135
330
1F
100
AcDbEntity
  8
0
  6
Continuous
 62
     7
370
    25
100
AcDbLine
 10
58.3423830793
 20
44.4499104016
 30
0.0
 11
57.1399699762
 21
44.4499104016
 31
0.0
  0
SPLINE
  5
136
330
1F
100
AcDbEntity
  8
0
  6
Continuous
 62
     7
370
    25
100
AcDbSpline
210
0.0
220
0.0
230
1.0
 70
     8
 71
     3
 72
    12
 73
     8
 74
     0
 42
0.000000001
 43
0.00000001
 40
0.0
 40
0.0
 40
0.0
 40
0.0
 40
0.249999999999999
 40
0.249999999999999
 40
0.499999999999998
 40
0.499999999999998
 40
1.0
 40
1.0
 40
1.0
 40
1.0
 10
77.54479618236739
 20
44.44991040156957
 30
0.0
 10
77.64817271580455
 20
44.44991040156957
 30
0.0
 10
77.75545823219146
 20
44.46627919369168
 30
0.0
 10
77.9785737174474
 20
44.51550901915937
 30
0.0
 10
78.09489205681047
 20
44.54894659179657
 30
0.0
 10
78.45320168146185
 20
44.66283739275611
 30
0.0
 10
78.70546272605036
 20
44.75681078998664
 30
0.0
 10
78.96950172337438
 20
44.84991040156956
 30
0.0
  0
SPLINE
  5
137
330
1F
100
AcDbEntity
  8
0
  6
Continuous
 62
     7
370
    25
100
AcDbSpline
210
0.0
220
0.0
230
1.0
 70
     8
 71
     3
 72
    10
 73
     6
 74
     0
 42
0.000000001
 43
0.00000001
 40
0.0
 40
0.0
 40
0.0
 40
0.0
 40
0.5
 40
0.5
 40
1.0
 40
1.0
 40
1.0
 40
1.0
 10
77.738968652143
 20
36.74322861393429
 30
0.0
 10
77.91298391969987
 20
36.82882099922794
 30
0.0
 10
78.10245312020514
 20
36.89059661666254
 30
0.0
 10
78.51325675385407
 20
36.9743817600596
 30
0.0
 10
78.73620572586044
 20
36.99595891605292
 30
0.0
 10
78.96950172337436
 20
36.9994031919887
 30
0.0
  0
SPLINE
  5
138
330
1F
100
AcDbEntity
  8
0
  6
Continuous
 62
     7
370
    25
100
AcDbSpline
210
0.0
220
0.0
230
1.0
 70
     8
 71
     3
 72
    16
 73
    12
 74
     0
 42
0.000000001
 43
0.00000001
 40
0.0
 40
0.0
 40
0.0
 40
0.0
 40
0.2499999999999993
 40
0.2499999999999993
 40
0.4999999999999987
 40
0.4999999999999987
 40
0.749999999999998
 40
0.749999999999998
 40
0.874999999999999
 40
0.874999999999999
 40
1.0
 40
1.0
 40
1.0
 40
1.0
 10
77.738968652143
 20
36.74322861393429
 30
0.0
 10
77.49265093583442
 20
36.62207303273194
 30
0.0
 10
77.28633814490611
 20
36.4717335446214
 30
0.0
 10
76.93489655156657
 20
36.13418623258419
 30
0.0
 10
76.79009561170986
 20
35.94527958777105
 30
0.0
 10
76.56434773458182
 20
35.55420206058051
 30
0.0
 10
76.4814940008725
 20
35.35031452749602
 30
0.0
 10
76.39814299788671
 20
35.03604147593148
 30
0.0
 10
76.37723247239867
 20
34.92970679551851
 30
0.0
 10
76.34932857022882
 20
34.71525122388839
 30
0.0
 10
76.34238307930657
 20
34.60666678755244
 30
0.0
 10
76.34238307930657
 20
34.49991040156957
 30
0.0
  0
LINE
  5
139
330
1F
100
AcDbEntity
  8
0
  6
Continuous
 62
     7
370
    25
100
AcDbLine
 10
76.3423830793
 20
44.4499104016
 30
0.0
 11
77.5447961824
 21
44.4499104016
 31
0.0
  0
SPLINE
  5
13A
330
1F
100
AcDbEntity
  8
0
  6
Continuous
 62
     7
370
    25
100
AcDbSpline
210
0.0
220
0.0
230
1.0
 70
     8
 71
     3
 72
    10
 73
     6
 74
     0
 42
0.000000001
 43
0.00000001
 40
0.0
 40
0.0
 40
0.0
 40
0.0
 40
0.5
 40
0.5
 40
1.0
 40
1.0
 40
1.0
 40
1.0
 10
55.71526443523877
 20
36.99940319198873
 30
0.0
 10
55.49174650200967
 20
37.00270310903333
 30
0.0
 10
55.27030895462128
 20
36.98907920131898
 30
0.0
 10
54.83155907395547
 20
36.9617111823702
 30
0.0
 10
54.61424596249749
 20
36.94940014435274
 30
0.0
 10
54.39898685289148
 20
36.94940014435274
 30
0.0
  0
LINE
  5
13B
330
1F
100
AcDbEntity
  8
0
  6
Continuous
 62
     7
370
    25
100
AcDbLine
 10
80.2857793057
 20
36.9494001444
 30
0.0
 11
91.8423830793
 21
36.9494001444
 31
0.0
  0
LINE
  5
13C
330
1F
100
AcDbEntity
  8
0
  6
Continuous
 62
     7
370
    25
100
AcDbLine
 10
42.8423830793
 20
36.9494001444
 30
0.0
 11
54.3989868529
 21
36.9494001444
 31
0.0
  0
SPLINE
  5
13D
330
1F
100
AcDbEntity
  8
0
  6
Continuous
 62
     7
370
    25
100
AcDbSpline
210
0.0
220
0.0
230
1.0
 70
     8
 71
     3
 72
    10
 73
     6
 74
     0
 42
0.000000001
 43
0.00000001
 40
0.0
 40
0.0
 40
0.0
 40
0.0
 40
0.5
 40
0.5
 40
1.0
 40
1.0
 40
1.0
 40
1.0
 10
78.96950172337438
 20
36.99940319198873
 30
0.0
 10
79.19301965660347
 20
37.00270310903333
 30
0.0
 10
79.41445720399187
 20
36.98907920131898
 30
0.0
 10
79.85320708465768
 20
36.9617111823702
 30
0.0
 10
80.07052019611565
 20
36.94940014435274
 30
0.0
 10
80.28577930572168
 20
36.94940014435274
 30
0.0
  0
LINE
  5
13E
330
1F
100
AcDbEntity
  8
0
  6
Continuous
 62
     7
370
    25
100
AcDbLine
 10
91.8423830793
 20
45.4499104016
 30
0.0
 11
42.8423830793
 21
45.4499104016
 31
0.0
  0
LINE
  5
13F
330
1F
100
AcDbEntity
  8
0
  6
Continuous
 62
     7
370
    25
100
AcDbLine
 10
43.3423830793
 20
45.9499104016
 30
0.0
 11
91.3423830793
 21
45.9499104016
 31
0.0
  0
LINE
  5
140
330
1F
100
AcDbEntity
  8
0
  6
Continuous
 62
     7
370
    25
100
AcDbLine
 10
58.3423830793
 20
28.2499104016
 30
0.0
 11
55.9838925133
 21
28.2499104016
 31
0.0
  0
LINE
  5
141
330
1F
100
AcDbEntity
  8
0
  6
Continuous
 62
     7
370
    25
100
AcDbLine
 10
78.7008736453
 20
28.2499104016
 30
0.0
 11
76.3423830793
 21
28.2499104016
 31
0.0
  0
LINE
  5
142
330
1F
100
AcDbEntity
  8
0
  6
Continuous
 62
     7
370
    25
100
AcDbLine
 10
55.9838925133
 20
28.2499104016
 30
0.0
 11
45.8423830793
 21
28.2499104016
 31
0.0
  0
LINE
  5
143
330
1F
100
AcDbEntity
  8
0
  6
Continuous
 62
     7
370
    25
100
AcDbLine
 10
88.8423830793
 20
28.2499104016
 30
0.0
 11
78.7008736453
 21
28.2499104016
 31
0.0
  0
LINE
  5
144
330
1F
100
AcDbEntity
  8
0
  6
Continuous
 62
     7
370
    25
100
AcDbLine
 10
64.3423830793
 20
90.3299104016
 30
0.0
 11
70.3423830786
 21
90.3299104016
 31
0.0
  0
LINE
  5
145
330
1F
100
AcDbEntity
  8
0
  6
Continuous
 62
     7
370
    25
100
AcDbLine
 10
45.3423830793
 20
90.3299104016
 30
0.0
 11
51.3423830786
 21
90.3299104016
 31
0.0
  0
LINE
  5
146
330
1F
100
AcDbEntity
  8
0
  6
Continuous
 62
     7
370
    25
100
AcDbLine
 10
72.5423830793
 20
84.5299104016
 30
0.0
 11
72.5423830793
 21
83.0299104016
 31
0.0
  0
LINE
  5
147
330
1F
100
AcDbEntity
  8
0
  6
Continuous
 62
     7
370
    25
100
AcDbLine
 10
67.5423830793
 20
84.5299104016
 30
0.0
 11
72.5423830793
 21
84.5299104016
 31
0.0
  0
LINE
  5
148
330
1F
100
AcDbEntity
  8
0
  6
Continuous
 62
     7
370
    25
100
AcDbLine
 10
52.3423830793
 20
83.0299104016
 30
0.0
 11
56.914056272
 21
83.0299104016
 31
0.0
  0
LINE
  5
149
330
1F
100
AcDbEntity
  8
0
  6
Continuous
 62
     7
370
    25
100
AcDbLine
 10
67.5423830793
 20
84.5299104016
 30
0.0
 11
52.3423830793
 21
84.5299104016
 31
0.0
  0
LINE
  5
14A
330
1F
100
AcDbEntity
  8
0
  6
Continuous
 62
     7
370
    25
100
AcDbLine
 10
42.3423830793
 20
83.0299104016
 30
0.0
 11
42.3423830793
 21
84.5299104016
 31
0.0
  0
LINE
  5
14B
330
1F
100
AcDbEntity
  8
0
  6
Continuous
 62
     7
370
    25
100
AcDbLine
 10
52.3423830793
 20
83.0299104016
 30
0.0
 11
42.3423830793
 21
83.0299104016
 31
0.0
  0
LINE
  5
14C
330
1F
100
AcDbEntity
  8
0
  6
Continuous
 62
     7
370
    25
100
AcDbLine
 10
42.3423830793
 20
84.5299104016
 30
0.0
 11
52.3423830793
 21
84.5299104016
 31
0.0
  0
LINE
  5
14D
330
1F
100
AcDbEntity
  8
0
  6
Continuous
 62
     7
370
    25
100
AcDbLine
 10
92.3423830793
 20
84.5299104016
 30
0.0
 11
92.3423830793
 21
83.0299104016
 31
0.0
  0
LINE
  5
14E
330
1F
100
AcDbEntity
  8
0
  6
Continuous
 62
     7
370
    25
100
AcDbLine
 10
92.3423830793
 20
83.0299104016
 30
0.0
 11
90.3423830793
 21
83.0299104016
 31
0.0
  0
LINE
  5
14F
330
1F
100
AcDbEntity
  8
0
  6
Continuous
 62
     7
370
    25
100
AcDbLine
 10
84.5774119219
 20
84.5299104016
 30
0.0
 11
92.3423830793
 21
84.5299104016
 31
0.0
  0
LINE
  5
150
330
1F
100
AcDbEntity
  8
0
  6
Continuous
 62
     7
370
    25
100
AcDbLine
 10
76.7774119219
 20
84.5299104016
 30
0.0
 11
76.9774119219
 21
84.5299104016
 31
0.0
  0
LINE
  5
151
330
1F
100
AcDbEntity
  8
0
  6
Continuous
 62
     7
370
    25
100
AcDbLine
 10
76.7774119219
 20
84.5299104016
 30
0.0
 11
74.3423830793
 21
84.5299104016
 31
0.0
  0
LINE
  5
152
330
1F
100
AcDbEntity
  8
0
  6
Continuous
 62
     7
370
    25
100
AcDbLine
 10
92.3423830793
 20
86.0299104016
 30
0.0
 11
92.3423830793
 21
84.5299104016
 31
0.0
  0
LINE
  5
153
330
1F
100
AcDbEntity
  8
0
  6
Continuous
 62
     7
370
    25
100
AcDbLine
 10
42.3423830793
 20
86.0299104016
 30
0.0
 11
42.3423830793
 21
84.5299104016
 31
0.0
  0
LINE
  5
154
330
1F
100
AcDbEntity
  8
0
  6
Continuous
 62
     7
370
    25
100
AcDbLine
 10
51.3423830793
 20
105.5299104016
 30
0.0
 11
53.3423830793
 21
105.5299104016
 31
0.0
  0
ARC
  5
155
330
1F
100
AcDbEntity
  8
0
  6
Continuous
 62
     7
370
    25
100
AcDbCircle
 10
51.3423830793
 20
101.5299104016
 30
0.0
 40
4.0
100
AcDbArc
 50
90.0
 51
270.0
  0
LINE
  5
156
330
1F
100
AcDbEntity
  8
0
  6
Continuous
 62
     7
370
    25
100
AcDbLine
 10
53.3423830793
 20
97.5299104016
 30
0.0
 11
51.3423830793
 21
97.5299104016
 31
0.0
  0
ARC
  5
157
330
1F
100
AcDbEntity
  8
0
  6
Continuous
 62
     7
370
    25
100
AcDbCircle
 10
53.3423830793
 20
101.5299104016
 30
0.0
 40
4.0
100
AcDbArc
 50
270.0
 51
90.0
  0
ARC
  5
158
330
1F
100
AcDbEntity
  8
0
  6
Continuous
 62
     7
370
    25
100
AcDbCircle
 10
47.3423830793
 20
103.0299104016
 30
0.0
 40
5.0
100
AcDbArc
 50
90.0
 51
180.0
  0
LINE
  5
159
330
1F
100
AcDbEntity
  8
0
  6
Continuous
 62
     7
370
    25
100
AcDbLine
 10
87.3423830793
 20
108.0299104016
 30
0.0
 11
47.3423830793
 21
108.0299104016
 31
0.0
  0
LINE
  5
15A
330
1F
100
AcDbEntity
  8
0
  6
Continuous
 62
     7
370
    25
100
AcDbLine
 10
81.3423830793
 20
97.5299104016
 30
0.0
 11
83.3423830793
 21
97.5299104016
 31
0.0
  0
ARC
  5
15B
330
1F
100
AcDbEntity
  8
0
  6
Continuous
 62
     7
370
    25
100
AcDbCircle
 10
83.3423830793
 20
101.5299104016
 30
0.0
 40
4.0
100
AcDbArc
 50
270.0
 51
90.0
  0
LINE
  5
15C
330
1F
100
AcDbEntity
  8
0
  6
Continuous
 62
     7
370
    25
100
AcDbLine
 10
83.3423830793
 20
105.5299104016
 30
0.0
 11
81.3423830793
 21
105.5299104016
 31
0.0
  0
ARC
  5
15D
330
1F
100
AcDbEntity
  8
0
  6
Continuous
 62
     7
370
    25
100
AcDbCircle
 10
81.3423830793
 20
101.5299104016
 30
0.0
 40
4.0
100
AcDbArc
 50
90.0
 51
270.0
  0
ARC
  5
15E
330
1F
100
AcDbEntity
  8
0
  6
Continuous
 62
     7
370
    25
100
AcDbCircle
 10
87.3423830793
 20
103.0299104016
 30
0.0
 40
5.0
100
AcDbArc
 50
0.0
 51
90.0
  0
LINE
  5
15F
330
1F
100
AcDbEntity
  8
0
  6
Continuous
 62
     7
370
    25
100
AcDbLine
 10
92.3423830793
 20
86.0299104016
 30
0.0
 11
92.3423830793
 21
103.0299104016
 31
0.0
  0
LINE
  5
160
330
1F
100
AcDbEntity
  8
0
  6
Continuous
 62
     7
370
    25
100
AcDbLine
 10
42.3423830793
 20
86.0299104016
 30
0.0
 11
42.3423830793
 21
103.0299104016
 31
0.0
  0
LINE
  5
161
330
1F
100
AcDbEntity
  8
0
  6
Continuous
 62
     7
370
    25
100
AcDbLine
 10
76.7774119219
 20
83.8299104016
 30
0.0
 11
84.7774119219
 21
83.8299104016
 31
0.0
  0
LINE
  5
162
330
1F
100
AcDbEntity
  8
0
  6
Continuous
 62
     7
370
    25
100
AcDbLine
 10
44.3423830793
 20
85.3299104016
 30
0.0
 11
50.3264751608
 21
85.3299104016
 31
0.0
  0
LINE
  5
163
330
1F
100
AcDbEntity
  8
0
  6
Continuous
 62
     7
370
    25
100
AcDbLine
 10
80.7774119219
 20
88.4299104015
 30
0.0
 11
77.2774119219
 21
88.4299104015
 31
0.0
  0
LINE
  5
164
330
1F
100
AcDbEntity
  8
0
  6
Continuous
 62
     7
370
    25
100
AcDbLine
 10
84.2774119219
 20
88.4299104015
 30
0.0
 11
80.7774119219
 21
88.4299104015
 31
0.0
  0
LINE
  5
165
330
1F
100
AcDbEntity
  8
0
  6
Continuous
 62
     7
370
    25
100
AcDbLine
 10
80.7774119219
 20
88.8299104016
 30
0.0
 11
83.8774119219
 21
88.8299104016
 31
0.0
  0
LINE
  5
166
330
1F
100
AcDbEntity
  8
0
  6
Continuous
 62
     7
370
    25
100
AcDbLine
 10
77.6774119219
 20
88.8299104016
 30
0.0
 11
80.7774119219
 21
88.8299104016
 31
0.0
  0
LINE
  5
167
330
1F
100
AcDbEntity
  8
0
  6
Continuous
 62
     7
370
    25
100
AcDbLine
 10
50.7953862476
 20
88.4299104015
 30
0.0
 11
50.3264751608
 21
88.4299104015
 31
0.0
  0
LINE
  5
168
330
1F
100
AcDbEntity
  8
0
  6
Continuous
 62
     7
370
    25
100
AcDbLine
 10
57.3264751608
 20
88.4299104015
 30
0.0
 11
50.7953862476
 21
88.4299104015
 31
0.0
  0
LINE
  5
169
330
1F
100
AcDbEntity
  8
0
  6
Continuous
 62
     7
370
    25
100
AcDbLine
 10
51.1417964091
 20
88.8299104016
 30
0.0
 11
56.9264751608
 21
88.8299104016
 31
0.0
  0
LINE
  5
16A
330
1F
100
AcDbEntity
  8
0
  6
Continuous
 62
     7
370
    25
100
AcDbLine
 10
50.7264751608
 20
88.8299104016
 30
0.0
 11
51.1417964091
 21
88.8299104016
 31
0.0
  0
LINE
  5
16B
330
1F
100
AcDbEntity
  8
0
  6
Continuous
 62
     7
370
    25
100
AcDbLine
 10
57.4073542368
 20
88.4299104015
 30
0.0
 11
57.3264751608
 21
88.4299104015
 31
0.0
  0
LINE
  5
16C
330
1F
100
AcDbEntity
  8
0
  6
Continuous
 62
     7
370
    25
100
AcDbLine
 10
56.9264751608
 20
88.8299104016
 30
0.0
 11
57.0073542368
 21
88.8299104016
 31
0.0
  0
LINE
  5
16D
330
1F
100
AcDbEntity
  8
0
  6
Continuous
 62
     7
370
    25
100
AcDbLine
 10
88.8423830793
 20
27.7499104016
 30
0.0
 11
80.5048296604
 21
27.7499104016
 31
0.0
  0
LINE
  5
16E
330
1F
100
AcDbEntity
  8
0
  6
Continuous
 62
     7
370
    25
100
AcDbLine
 10
80.5048296604
 20
27.7499104016
 30
0.0
 11
79.6712110852
 21
28.2499104016
 31
0.0
  0
LINE
  5
16F
330
1F
100
AcDbEntity
  8
0
  6
Continuous
 62
     7
370
    25
100
AcDbLine
 10
80.5048296604
 20
8.7499104016
 30
0.0
 11
88.8423830793
 21
8.7499104016
 31
0.0
  0
LINE
  5
170
330
1F
100
AcDbEntity
  8
0
  6
Continuous
 62
     7
370
    25
100
AcDbLine
 10
80.5048296604
 20
8.7499104016
 30
0.0
 11
80.5048296604
 21
27.7499104016
 31
0.0
  0
LINE
  5
171
330
1F
100
AcDbEntity
  8
0
  6
Continuous
 62
     7
370
    25
100
AcDbLine
 10
79.6712110852
 20
8.2499104016
 30
0.0
 11
80.5048296604
 21
8.7499104016
 31
0.0
  0
LINE
  5
172
330
1F
100
AcDbEntity
  8
0
  6
Continuous
 62
     7
370
    25
100
AcDbLine
 10
88.3423830793
 20
8.2499104016
 30
0.0
 11
79.6712110852
 21
8.2499104016
 31
0.0
  0
LINE
  5
173
330
1F
100
AcDbEntity
  8
0
  6
Continuous
 62
     7
370
    25
100
AcDbLine
 10
54.1799364982
 20
8.7499104016
 30
0.0
 11
55.0135550734
 21
8.2499104016
 31
0.0
  0
LINE
  5
174
330
1F
100
AcDbEntity
  8
0
  6
Continuous
 62
     7
370
    25
100
AcDbLine
 10
54.1799364982
 20
27.7499104016
 30
0.0
 11
54.1799364982
 21
8.7499104016
 31
0.0
  0
LINE
  5
175
330
1F
100
AcDbEntity
  8
0
  6
Continuous
 62
     7
370
    25
100
AcDbLine
 10
55.0135550734
 20
28.2499104016
 30
0.0
 11
54.1799364982
 21
27.7499104016
 31
0.0
  0
LINE
  5
176
330
1F
100
AcDbEntity
  8
0
  6
Continuous
 62
     7
370
    25
100
AcDbLine
 10
79.6712110852
 20
8.2499104016
 30
0.0
 11
55.0135550734
 21
8.2499104016
 31
0.0
  0
LINE
  5
177
330
1F
100
AcDbEntity
  8
0
  6
Continuous
 62
     7
370
    25
100
AcDbLine
 10
45.8423830793
 20
8.7499104016
 30
0.0
 11
54.1799364982
 21
8.7499104016
 31
0.0
  0
LINE
  5
178
330
1F
100
AcDbEntity
  8
0
  6
Continuous
 62
     7
370
    25
100
AcDbLine
 10
55.0135550734
 20
8.2499104016
 30
0.0
 11
46.3423830793
 21
8.2499104016
 31
0.0
  0
LINE
  5
179
330
1F
100
AcDbEntity
  8
0
  6
Continuous
 62
     7
370
    25
100
AcDbLine
 10
54.1799364982
 20
27.7499104016
 30
0.0
 11
45.8423830793
 21
27.7499104016
 31
0.0
  0
LINE
  5
17A
330
1F
100
AcDbEntity
  8
0
  6
Continuous
 62
     7
370
    25
100
AcDbLine
 10
56.914056272
 20
83.0299104016
 30
0.0
 11
90.3423830793
 21
83.0299104016
 31
0.0
  0
LINE
  5
17B
330
1F
100
AcDbEntity
  8
0
  6
Continuous
 62
     7
370
    25
100
AcDbLine
 10
90.8423830793
 20
82.5299104016
 30
0.0
 11
43.8423830793
 21
82.5299104016
 31
0.0
  0
LINE
  5
17C
330
1F
100
AcDbEntity
  8
0
  6
Continuous
 62
     7
370
    25
100
AcDbLine
 10
43.8423830793
 20
77.5299104016
 30
0.0
 11
90.8423830793
 21
77.5299104016
 31
0.0
  0
LINE
  5
17D
330
1F
100
AcDbEntity
  8
0
  6
Continuous
 62
     7
370
    25
100
AcDbLine
 10
90.3423830793
 20
77.0299104016
 30
0.0
 11
44.3423830793
 21
77.0299104016
 31
0.0
  0
LINE
  5
17E
330
1F
100
AcDbEntity
  8
0
  6
Continuous
 62
     7
370
    25
100
AcDbLine
 10
74.3423830793
 20
88.5299104016
 30
0.0
 11
60.3423830793
 21
88.5299104016
 31
0.0
  0
LINE
  5
17F
330
1F
100
AcDbEntity
  8
0
  6
Continuous
 62
     7
370
    25
100
AcDbLine
 10
60.8423830793
 20
89.0299104016
 30
0.0
 11
73.8423830793
 21
89.0299104016
 31
0.0
  0
LINE
  5
180
330
1F
100
AcDbEntity
  8
0
  6
Continuous
 62
     7
370
    25
100
AcDbLine
 10
90.0923830793
 20
76.6299104016
 30
0.0
 11
44.5923830793
 21
76.6299104016
 31
0.0
  0
LINE
  5
181
330
1F
100
AcDbEntity
  8
0
  6
Continuous
 62
     7
370
    25
100
AcDbLine
 10
67.3423830793
 20
57.0899104016
 30
0.0
 11
44.5923830793
 21
57.0899104016
 31
0.0
  0
LINE
  5
182
330
1F
100
AcDbEntity
  8
0
  6
Continuous
 62
     7
370
    25
100
AcDbLine
 10
90.0923830793
 20
57.0899104016
 30
0.0
 11
67.3423830793
 21
57.0899104016
 31
0.0
  0
LINE
  5
183
330
1F
100
AcDbEntity
  8
0
  6
Continuous
 62
     7
370
    25
100
AcDbLine
 10
43.8423830793
 20
57.9899104016
 30
0.0
 11
90.8423830793
 21
57.9899104016
 31
0.0
  0
LINE
  5
184
330
1F
100
AcDbEntity
  8
0
  6
Continuous
 62
     7
370
    25
100
AcDbLine
 10
90.3423830793
 20
57.4899104016
 30
0.0
 11
44.3423830793
 21
57.4899104016
 31
0.0
  0
LINE
  5
185
330
1F
100
AcDbEntity
  8
0
  6
Continuous
 62
     7
370
    25
100
AcDbLine
 10
67.3423830793
 20
71.4899104016
 30
0.0
 11
90.3423830793
 21
71.4899104016
 31
0.0
  0
LINE
  5
186
330
1F
100
AcDbEntity
  8
0
  6
Continuous
 62
     7
370
    25
100
AcDbLine
 10
44.3423830793
 20
71.4899104016
 30
0.0
 11
67.3423830793
 21
71.4899104016
 31
0.0
  0
LINE
  5
187
330
1F
100
AcDbEntity
  8
0
  6
Continuous
 62
     7
370
    25
100
AcDbLine
 10
67.3423830793
 20
70.9899104016
 30
0.0
 11
43.8423830793
 21
70.9899104016
 31
0.0
  0
LINE
  5
188
330
1F
100
AcDbEntity
  8
0
  6
Continuous
 62
     7
370
    25
100
AcDbLine
 10
90.8423830793
 20
70.9899104016
 30
0.0
 11
67.3423830793
 21
70.9899104016
 31
0.0
  0
SPLINE
  5
189
330
1F
100
AcDbEntity
  8
0
  6
Continuous
 62
     7
370
    25
100
AcDbSpline
210
0.0
220
0.0
230
1.0
 70
     8
 71
     3
 72
    24
 73
    20
 74
     0
 42
0.000000001
 43
0.00000001
 40
0.0
 40
0.0
 40
0.0
 40
0.0
 40
0.0020769616505859
 40
0.0652967144848645
 40
0.1281736602569431
 40
0.1912192767925517
 40
0.2540071927950076
 40
0.3162784598925438
 40
0.3784602934280282
 40
0.4405477740104172
 40
0.5022888118817727
 40
0.5643810016308094
 40
0.6262432877444118
 40
0.6885379387309141
 40
0.7509768944398136
 40
0.8134776719004958
 40
0.8764538787341156
 40
0.9392020918731442
 40
1.0
 40
1.0
 40
1.0
 40
1.0
 10
90.8417386767116
 20
58.68574254302061
 30
0.0
 10
90.84195261086265
 20
58.68474043890917
 30
0.0
 10
90.84867839570083
 20
58.65323571371097
 30
0.0
 10
90.82417460555777
 20
58.76682026249426
 30
0.0
 10
90.7674773556201
 20
59.03872223602766
 30
0.0
 10
90.67708007859159
 20
59.50728732176606
 30
0.0
 10
90.57246574446681
 20
60.12587675793467
 30
0.0
 10
90.4678884418105
 20
60.8773718467543
 30
0.0
 10
90.37941339670928
 20
61.73272512620142
 30
0.0
 10
90.32067651576978
 20
62.66111917158631
 30
0.0
 10
90.30106631561833
 20
63.62744871270309
 30
0.0
 10
90.3238492509149
 20
64.5911731168333
 30
0.0
 10
90.38533943816866
 20
65.51607763769628
 30
0.0
 10
90.47559728821223
 20
66.36473957019217
 30
0.0
 10
90.58063186790308
 20
67.10608608622498
 30
0.0
 10
90.6848966446622
 20
67.7147738051649
 30
0.0
 10
90.7716449364919
 20
68.16193751250901
 30
0.0
 10
90.83128558059697
 20
68.4460022279078
 30
0.0
 10
90.83822039189896
 20
68.47789100372273
 30
0.0
 10
90.84163306091757
 20
68.49358369275582
 30
0.0
  0
LINE
  5
18A
330
1F
100
AcDbEntity
  8
0
  6
Continuous
 62
     7
370
    25
100
AcDbLine
 10
50.8423830793
 20
57.2899104016
 30
0.0
 11
51.8264751608
 21
57.2899104016
 31
0.0
  0
LINE
  5
18B
330
1F
100
AcDbEntity
  8
0
  6
Continuous
 62
     7
370
    25
100
AcDbLine
 10
55.8264751608
 20
57.2899104016
 30
0.0
 11
78.7774119219
 21
57.2899104016
 31
0.0
  0
LINE
  5
18C
330
1F
100
AcDbEntity
  8
0
  6
Continuous
 62
     7
370
    25
100
AcDbLine
 10
82.7774119219
 20
57.2899104016
 30
0.0
 11
83.8423830793
 21
57.2899104016
 31
0.0
  0
LINE
  5
18D
330
1F
100
AcDbEntity
  8
0
  6
Continuous
 62
     7
370
    25
100
AcDbLine
 10
50.3264751608
 20
86.3299104016
 30
0.0
 11
44.5423830793
 21
86.3299104016
 31
0.0
  0
ELLIPSE
  5
18E
330
1F
100
AcDbEntity
  8
0
  6
Continuous
 62
     7
370
    25
100
AcDbEllipse
 10
48.3423830793
 20
85.8299104016
 30
0.0
 11
0.0
 21
10.44041419392755
 31
0.0
210
0.0
220
0.0
230
1.0
 40
0.3639702343
 41
1.570796326794897
 42
1.618705472523712
  0
LINE
  5
18F
330
1F
100
AcDbEntity
  8
0
  6
Continuous
 62
     7
370
    25
100
AcDbLine
 10
84.5748520417
 20
84.8299104016
 30
0.0
 11
76.9774119219
 21
84.8299104016
 31
0.0
  0
ELLIPSE
  5
190
330
1F
100
AcDbEntity
  8
0
  6
Continuous
 62
     7
370
    25
100
AcDbEllipse
 10
80.7774119219
 20
83.2309194338
 30
0.0
 11
0.5102456895653944
 21
10.43879160035894
 31
0.0
210
0.0
220
0.0
230
1.0
 40
0.3607302128
 41
4.847070964117783
 42
4.883778682965252
  0
LINE
  5
191
330
1F
100
AcDbEntity
  8
0
  6
Continuous
 62
     7
370
    25
100
AcDbLine
 10
84.5774119219
 20
84.8299104016
 30
0.0
 11
84.5748520417
 21
84.8299104016
 31
0.0
  0
LINE
  5
192
330
1F
100
AcDbEntity
  8
0
  6
Continuous
 62
     7
370
    25
100
AcDbLine
 10
57.5703425283
 20
84.8299104016
 30
0.0
 11
50.0264751608
 21
84.8299104016
 31
0.0
  0
LINE
  5
193
330
1F
100
AcDbEntity
  8
0
  6
Continuous
 62
     7
370
    25
100
AcDbLine
 10
57.6264751608
 20
84.8299104016
 30
0.0
 11
57.6181403716
 21
84.8299104016
 31
0.0
  0
ELLIPSE
  5
194
330
1F
100
AcDbEntity
  8
0
  6
Continuous
 62
     7
370
    25
100
AcDbEllipse
 10
53.8264751608
 20
83.2309194338
 30
0.0
 11
-0.08030437100452303
 21
10.44037329869909
 31
0.0
210
0.0
220
0.0
230
1.0
 40
0.3638903774
 41
4.834332796388324
 42
4.863349167995882
  0
ELLIPSE
  5
195
330
1F
100
AcDbEntity
  8
0
  6
Continuous
 62
     7
370
    25
100
AcDbEllipse
 10
53.8264751608
 20
84.3299104016
 30
0.0
 11
-0.08030437100452303
 21
10.4403732986991
 31
0.0
210
0.0
220
0.0
230
1.0
 40
0.3638903774
 41
4.728747546719735
 42
4.757499192519097
  0
LINE
  5
196
330
1F
100
AcDbEntity
  8
0
  6
Continuous
 62
     7
370
    25
100
AcDbLine
 10
57.5703425283
 20
84.8299104016
 30
0.0
 11
57.6181403716
 21
84.8299104016
 31
0.0
  0
LINE
  5
197
330
1F
100
AcDbEntity
  8
0
  6
Continuous
 62
     7
370
    25
100
AcDbLine
 10
57.7073542368
 20
84.8299104016
 30
0.0
 11
57.6181403716
 21
84.8299104016
 31
0.0
  0
SPLINE
  5
198
330
1F
100
AcDbEntity
  8
0
  6
Continuous
 62
     7
370
    25
100
AcDbSpline
210
0.0
220
0.0
230
1.0
 70
     8
 71
     3
 72
    10
 73
     6
 74
     0
 42
0.000000001
 43
0.00000001
 40
0.0
 40
0.0
 40
0.0
 40
0.0
 40
0.2538172255998933
 40
0.6254155652320254
 40
1.0
 40
1.0
 40
1.0
 40
1.0
 10
92.5698830793065
 20
19.05055742449422
 30
0.0
 10
92.57602405175093
 20
18.76626158800243
 30
0.0
 10
92.59115564789585
 20
18.06574553416727
 30
0.0
 10
92.72652236409556
 20
16.95083619141846
 30
0.0
 10
92.91052585871739
 20
16.13528184614802
 30
0.0
 10
93.00289578119872
 20
15.72587281939677
 30
0.0
  0
SPLINE
  5
199
330
1F
100
AcDbEntity
  8
0
  6
Continuous
 62
     7
370
    25
100
AcDbSpline
210
0.0
220
0.0
230
1.0
 70
     8
 71
     3
 72
     9
 73
     5
 74
     0
 42
0.000000001
 43
0.00000001
 40
0.0
 40
0.0
 40
0.0
 40
0.0
 40
0.4965134544262705
 40
1.0
 40
1.0
 40
1.0
 40
1.0
 10
93.00289578119872
 20
22.37524202959168
 30
0.0
 10
92.88037768464055
 20
21.83163172063476
 30
0.0
 10
92.63362083351
 20
20.7367765780182
 30
0.0
 10
92.59122753481961
 20
19.61523734077779
 30
0.0
 10
92.5698830793065
 20
19.05055742449422
 30
0.0
  0
LINE
  5
19A
330
1F
100
AcDbEntity
  8
0
  6
Continuous
 62
     7
370
    25
100
AcDbLine
 10
93.0028957812
 20
22.3752420296
 30
0.0
 11
97.1368703774
 21
22.3752420296
 31
0.0
  0
SPLINE
  5
19B
330
1F
100
AcDbEntity
  8
0
  6
Continuous
 62
     7
370
    25
100
AcDbSpline
210
0.0
220
0.0
230
1.0
 70
     8
 71
     3
 72
    10
 73
     6
 74
     0
 42
0.000000001
 43
0.00000001
 40
0.0
 40
0.0
 40
0.0
 40
0.0
 40
0.253817225599894
 40
0.6254155652320277
 40
1.0
 40
1.0
 40
1.0
 40
1.0
 10
97.56988307930652
 20
19.05055742449422
 30
0.0
 10
97.5637421068621
 20
19.33485326098602
 30
0.0
 10
97.5486105107172
 20
20.03536931482118
 30
0.0
 10
97.41324379451743
 20
21.15027865756998
 30
0.0
 10
97.22924029989564
 20
21.96583300284043
 30
0.0
 10
97.13687037741431
 20
22.37524202959167
 30
0.0
  0
SPLINE
  5
19C
330
1F
100
AcDbEntity
  8
0
  6
Continuous
 62
     7
370
    25
100
AcDbSpline
210
0.0
220
0.0
230
1.0
 70
     8
 71
     3
 72
     9
 73
     5
 74
     0
 42
0.000000001
 43
0.00000001
 40
0.0
 40
0.0
 40
0.0
 40
0.0
 40
0.4965134544262714
 40
1.0
 40
1.0
 40
1.0
 40
1.0
 10
97.13687037741431
 20
15.72587281939678
 30
0.0
 10
97.25938847397249
 20
16.26948312835368
 30
0.0
 10
97.50614532510305
 20
17.36433827097025
 30
0.0
 10
97.54853862379342
 20
18.48587750821065
 30
0.0
 10
97.56988307930652
 20
19.05055742449422
 30
0.0
  0
LINE
  5
19D
330
1F
100
AcDbEntity
  8
0
  6
Continuous
 62
     7
370
    25
100
AcDbLine
 10
97.1368703774
 20
15.7258728194
 30
0.0
 11
93.0028957812
 21
15.7258728194
 31
0.0
  0
LINE
  5
19E
330
1F
100
AcDbEntity
  8
0
  6
Continuous
 62
     7
370
    25
100
AcDbLine
 10
107.2413830793
 20
12.6714104016
 30
0.0
 11
107.2413830793
 21
25.8284104016
 31
0.0
  0
LINE
  5
19F
330
1F
100
AcDbEntity
  8
0
  6
Continuous
 62
     7
370
    25
100
AcDbLine
 10
108.5698830793
 20
13.9999104016
 30
0.0
 11
108.5698830793
 21
24.4999104016
 31
0.0
  0
LINE
  5
1A0
330
1F
100
AcDbEntity
  8
0
  6
Continuous
 62
     7
370
    25
100
AcDbLine
 10
101.2983830793
 20
12.6714104016
 30
0.0
 11
101.2983830793
 21
25.8284104016
 31
0.0
  0
LINE
  5
1A1
330
1F
100
AcDbEntity
  8
0
  6
Continuous
 62
     7
370
    25
100
AcDbLine
 10
99.7198830793
 20
14.2499104016
 30
0.0
 11
99.7198830793
 21
24.2499104016
 31
0.0
  0
LINE
  5
1A2
330
1F
100
AcDbEntity
  8
0
  6
Continuous
 62
     7
370
    25
100
AcDbLine
 10
88.8413830793
 20
12.67467936
 30
0.0
 11
88.8413830793
 21
25.8251414431
 31
0.0
  0
LINE
  5
1A3
330
1F
100
AcDbEntity
  8
0
  6
Continuous
 62
     7
370
    25
100
AcDbLine
 10
90.4198830793
 20
14.2499104016
 30
0.0
 11
90.4198830793
 21
24.2499104016
 31
0.0
  0
SPLINE
  5
1A4
330
1F
100
AcDbEntity
  8
0
  6
Continuous
 62
     7
370
    25
100
AcDbSpline
210
0.0
220
0.0
230
1.0
 70
     8
 71
     3
 72
     9
 73
     5
 74
     0
 42
0.000000001
 43
0.00000001
 40
0.0
 40
0.0
 40
0.0
 40
0.0
 40
0.5563444717091588
 40
1.0
 40
1.0
 40
1.0
 40
1.0
 10
97.13687037741434
 20
23.46557881705177
 30
0.0
 10
97.27237609855518
 20
23.78550580939743
 30
0.0
 10
97.51594052317247
 20
24.36055779358056
 30
0.0
 10
97.55330577760955
 20
24.94892188466666
 30
0.0
 10
97.56988307930656
 20
25.20995286632482
 30
0.0
  0
LINE
  5
1A5
330
1F
100
AcDbEntity
  8
0
  6
Continuous
 62
     7
370
    25
100
AcDbLine
 10
97.1368703774
 20
22.3752420296
 30
0.0
 11
97.1368703774
 21
23.4655788171
 31
0.0
  0
LINE
  5
1A6
330
1F
100
AcDbEntity
  8
0
  6
Continuous
 62
     7
370
    25
100
AcDbLine
 10
97.5698830793
 20
25.2099528663
 30
0.0
 11
97.5698830793
 21
19.0505574245
 31
0.0
  0
SPLINE
  5
1A7
330
1F
100
AcDbEntity
  8
0
  6
Continuous
 62
     7
370
    25
100
AcDbSpline
210
0.0
220
0.0
230
1.0
 70
     8
 71
     3
 72
     9
 73
     5
 74
     0
 42
0.000000001
 43
0.00000001
 40
0.0
 40
0.0
 40
0.0
 40
0.0
 40
0.4436555282908398
 40
1.0
 40
1.0
 40
1.0
 40
1.0
 10
92.56988307930655
 20
25.20995286632482
 30
0.0
 10
92.58646038100355
 20
24.94892188466665
 30
0.0
 10
92.62382563544057
 20
24.36055779358055
 30
0.0
 10
92.86739006005789
 20
23.78550580939743
 30
0.0
 10
93.00289578119875
 20
23.46557881705177
 30
0.0
  0
LINE
  5
1A8
330
1F
100
AcDbEntity
  8
0
  6
Continuous
 62
     7
370
    25
100
AcDbLine
 10
93.0028957812
 20
23.4655788171
 30
0.0
 11
93.0028957812
 21
22.3752420296
 31
0.0
  0
LINE
  5
1A9
330
1F
100
AcDbEntity
  8
0
  6
Continuous
 62
     7
370
    25
100
AcDbLine
 10
92.5698830793
 20
19.0505574245
 30
0.0
 11
92.5698830793
 21
25.2099528663
 31
0.0
  0
SPLINE
  5
1AA
330
1F
100
AcDbEntity
  8
0
  6
Continuous
 62
     7
370
    25
100
AcDbSpline
210
0.0
220
0.0
230
1.0
 70
     8
 71
     3
 72
    10
 73
     6
 74
     0
 42
0.000000001
 43
0.00000001
 40
0.0
 40
0.0
 40
0.0
 40
0.0
 40
0.2538172255998963
 40
0.6254155652320283
 40
1.0
 40
1.0
 40
1.0
 40
1.0
 10
97.56988307930655
 20
13.09051495973879
 30
0.0
 10
97.56374210686211
 20
13.22564829259571
 30
0.0
 10
97.5486105107172
 20
13.55862210692468
 30
0.0
 10
97.41324379451746
 20
14.08856801530705
 30
0.0
 10
97.22924029989565
 20
14.47622257318702
 30
0.0
 10
97.13687037741431
 20
14.67082551556321
 30
0.0
  0
LINE
  5
1AB
330
1F
100
AcDbEntity
  8
0
  6
Continuous
 62
     7
370
    25
100
AcDbLine
 10
97.1368703774
 20
14.6708255156
 30
0.0
 11
97.1368703774
 21
15.7258728194
 31
0.0
  0
LINE
  5
1AC
330
1F
100
AcDbEntity
  8
0
  6
Continuous
 62
     7
370
    25
100
AcDbLine
 10
97.5698830793
 20
19.0505574245
 30
0.0
 11
97.5698830793
 21
13.0905149597
 31
0.0
  0
SPLINE
  5
1AD
330
1F
100
AcDbEntity
  8
0
  6
Continuous
 62
     7
370
    25
100
AcDbSpline
210
0.0
220
0.0
230
1.0
 70
     8
 71
     3
 72
     9
 73
     5
 74
     0
 42
0.000000001
 43
0.00000001
 40
0.0
 40
0.0
 40
0.0
 40
0.0
 40
0.4965134544262737
 40
0.9999999999999999
 40
0.9999999999999999
 40
0.9999999999999999
 40
0.9999999999999999
 10
93.00289578119873
 20
14.67082551556321
 30
0.0
 10
92.88037768464055
 20
14.41243315311701
 30
0.0
 10
92.63362083351
 20
13.89201953664259
 30
0.0
 10
92.59122753481962
 20
13.35892226399758
 30
0.0
 10
92.56988307930654
 20
13.09051495973877
 30
0.0
  0
LINE
  5
1AE
330
1F
100
AcDbEntity
  8
0
  6
Continuous
 62
     7
370
    25
100
AcDbLine
 10
93.0028957812
 20
15.7258728194
 30
0.0
 11
93.0028957812
 21
14.6708255156
 31
0.0
  0
LINE
  5
1AF
330
1F
100
AcDbEntity
  8
0
  6
Continuous
 62
     7
370
    25
100
AcDbLine
 10
92.5698830793
 20
13.0905149597
 30
0.0
 11
92.5698830793
 21
19.0505574245
 31
0.0
  0
LINE
  5
1B0
330
1F
100
AcDbEntity
  8
0
  6
Continuous
 62
     7
370
    25
100
AcDbLine
 10
97.1368703774
 20
23.4655788171
 30
0.0
 11
93.0028957812
 21
23.4655788171
 31
0.0
  0
LINE
  5
1B1
330
1F
100
AcDbEntity
  8
0
  6
Continuous
 62
     7
370
    25
100
AcDbLine
 10
93.0028957812
 20
14.6708255156
 30
0.0
 11
97.1368703774
 21
14.6708255156
 31
0.0
  0
SPLINE
  5
1B2
330
1F
100
AcDbEntity
  8
0
  6
Continuous
 62
     7
370
    25
100
AcDbSpline
210
0.0
220
0.0
230
1.0
 70
     8
 71
     3
 72
    10
 73
     6
 74
     0
 42
0.000000001
 43
0.00000001
 40
0.0
 40
0.0
 40
0.0
 40
0.0
 40
0.2372861409041385
 40
0.6168892495779051
 40
1.0
 40
1.0
 40
1.0
 40
1.0
 10
93.0028957811984
 20
26.9543269155981
 30
0.0
 10
92.94260629275722
 20
26.81852808045451
 30
0.0
 10
92.78586752520756
 20
26.46548242348491
 30
0.0
 10
92.6104548192485
 20
25.88347579863046
 30
0.0
 10
92.58344839253685
 20
25.43514778174093
 30
0.0
 10
92.56988307930656
 20
25.20995286632482
 30
0.0
  0
LINE
  5
1B3
330
1F
100
AcDbEntity
  8
0
  6
Continuous
 62
     7
370
    25
100
AcDbLine
 10
93.0028957812
 20
26.9543269156
 30
0.0
 11
97.1368703774
 21
26.9543269156
 31
0.0
  0
SPLINE
  5
1B4
330
1F
100
AcDbEntity
  8
0
  6
Continuous
 62
     7
370
    25
100
AcDbSpline
210
0.0
220
0.0
230
1.0
 70
     8
 71
     3
 72
    10
 73
     6
 74
     0
 42
0.000000001
 43
0.00000001
 40
0.0
 40
0.0
 40
0.0
 40
0.0
 40
0.3794523958445896
 40
0.7627140330548203
 40
1.0
 40
1.0
 40
1.0
 40
1.0
 10
97.56988307930656
 20
25.20995286632482
 30
0.0
 10
97.5565611592879
 20
25.43299550026207
 30
0.0
 10
97.5297835833476
 20
25.88131984538788
 30
0.0
 10
97.35482696241581
 20
26.46338906294269
 30
0.0
 10
97.19715950664258
 20
26.81852823972223
 30
0.0
 10
97.13687037741477
 20
26.9543269155981
 30
0.0
  0
SPLINE
  5
1B5
330
1F
100
AcDbEntity
  8
0
  6
Continuous
 62
     7
370
    25
100
AcDbSpline
210
0.0
220
0.0
230
1.0
 70
     8
 71
     3
 72
    10
 73
     6
 74
     0
 42
0.000000001
 43
0.00000001
 40
0.0
 40
0.0
 40
0.0
 40
0.0
 40
0.2538172255998945
 40
0.6254155652320272
 40
0.9999999999999999
 40
0.9999999999999999
 40
0.9999999999999999
 40
0.9999999999999999
 10
92.56988307930654
 20
13.09051495973877
 30
0.0
 10
92.57602405175096
 20
12.95538162688185
 30
0.0
 10
92.59115564789587
 20
12.62240781255285
 30
0.0
 10
92.72652236409562
 20
12.0924619041705
 30
0.0
 10
92.91052585871743
 20
11.70480734629054
 30
0.0
 10
93.00289578119877
 20
11.51020440391435
 30
0.0
  0
SPLINE
  5
1B6
330
1F
100
AcDbEntity
  8
0
  6
Continuous
 62
     7
370
    25
100
AcDbSpline
210
0.0
220
0.0
230
1.0
 70
     8
 71
     3
 72
     9
 73
     5
 74
     0
 42
0.000000001
 43
0.00000001
 40
0.0
 40
0.0
 40
0.0
 40
0.0
 40
0.4965134544262735
 40
1.0
 40
1.0
 40
1.0
 40
1.0
 10
97.13687037741435
 20
11.51020440391434
 30
0.0
 10
97.25938847397254
 20
11.76859676636052
 30
0.0
 10
97.50614532510308
 20
12.28901038283494
 30
0.0
 10
97.54853862379345
 20
12.82210765547997
 30
0.0
 10
97.56988307930655
 20
13.09051495973879
 30
0.0
  0
LINE
  5
1B7
330
1F
100
AcDbEntity
  8
0
  6
Continuous
 62
     7
370
    25
100
AcDbLine
 10
97.1368703774
 20
11.5102044039
 30
0.0
 11
93.0028957812
 21
11.5102044039
 31
0.0
  0
LINE
  5
1B8
330
1F
100
AcDbEntity
  8
0
  6
Continuous
 62
     7
370
    25
100
AcDbLine
 10
97.1368703774
 20
26.9543269156
 30
0.0
 11
97.1368703774
 21
26.9999104016
 31
0.0
  0
LINE
  5
1B9
330
1F
100
AcDbEntity
  8
0
  6
Continuous
 62
     7
370
    25
100
AcDbLine
 10
97.5698830793
 20
26.2499104016
 30
0.0
 11
97.5698830793
 21
25.2099528663
 31
0.0
  0
LINE
  5
1BA
330
1F
100
AcDbEntity
  8
0
  6
Continuous
 62
     7
370
    25
100
AcDbLine
 10
93.0028957812
 20
26.9999104016
 30
0.0
 11
93.0028957812
 21
26.9543269156
 31
0.0
  0
LINE
  5
1BB
330
1F
100
AcDbEntity
  8
0
  6
Continuous
 62
     7
370
    25
100
AcDbLine
 10
92.5698830793
 20
25.2099528663
 30
0.0
 11
92.5698830793
 21
26.2499104016
 31
0.0
  0
LINE
  5
1BC
330
1F
100
AcDbEntity
  8
0
  6
Continuous
 62
     7
370
    25
100
AcDbLine
 10
97.1368703774
 20
11.4999104016
 30
0.0
 11
97.1368703774
 21
11.5102044039
 31
0.0
  0
LINE
  5
1BD
330
1F
100
AcDbEntity
  8
0
  6
Continuous
 62
     7
370
    25
100
AcDbLine
 10
97.5698830793
 20
12.2499104016
 30
0.0
 11
97.5698830793
 21
13.0905149597
 31
0.0
  0
LINE
  5
1BE
330
1F
100
AcDbEntity
  8
0
  6
Continuous
 62
     7
370
    25
100
AcDbLine
 10
93.0028957812
 20
11.5102044039
 30
0.0
 11
93.0028957812
 21
11.4999104016
 31
0.0
  0
LINE
  5
1BF
330
1F
100
AcDbEntity
  8
0
  6
Continuous
 62
     7
370
    25
100
AcDbLine
 10
92.5698830793
 20
12.2499104016
 30
0.0
 11
92.5698830793
 21
13.0905149597
 31
0.0
  0
CIRCLE
  5
1C0
330
1F
100
AcDbEntity
  8
0
  6
Continuous
 62
     7
370
    25
100
AcDbCircle
 10
67.3423830793
 20
36.3499104016
 30
0.0
 40
5.249999999999993
  0
CIRCLE
  5
1C1
330
1F
100
AcDbEntity
  8
0
  6
Continuous
 62
     7
370
    25
100
AcDbCircle
 10
67.3423830793
 20
36.3499104016
 30
0.0
 40
4.25
  0
CIRCLE
  5
1C2
330
1F
100
AcDbEntity
  8
0
  6
Continuous
 62
     7
370
    25
100
AcDbCircle
 10
67.3423830793
 20
36.3499104016
 30
0.0
 40
6.578500000000005
  0
CIRCLE
  5
1C3
330
1F
100
AcDbEntity
  8
0
  6
Continuous
 62
     7
370
    25
100
AcDbCircle
 10
67.3423830793
 20
36.3499104016
 30
0.0
 40
2.499999999999999
  0
SPLINE
  5
1C4
330
1F
100
AcDbEntity
  8
0
  6
Continuous
 62
     7
370
    25
100
AcDbSpline
210
0.0
220
0.0
230
1.0
 70
    24
 71
     3
 72
     9
 73
     5
 74
     0
 42
0.000000001
 43
0.00000001
 40
0.0
 40
0.0
 40
0.0
 40
0.0
 40
0.5563444717091591
 40
1.0
 40
1.0
 40
1.0
 40
1.0
 10
63.0850535771376
 20
29.87398224338484
 30
0.0
 10
62.76846745919673
 20
30.39541015191151
 30
0.0
 10
62.19942052148153
 20
31.33264946144357
 30
0.0
 10
61.6172004900704
 20
32.29158529620348
 30
0.0
 10
61.35889535445319
 20
32.7170224805709
 30
0.0
  0
ARC
  5
1C5
330
1F
100
AcDbEntity
  8
0
  6
Continuous
 62
     7
370
    25
100
AcDbCircle
 10
67.3423830793
 20
36.3499104016
 30
0.0
 40
7.000000000000016
100
AcDbArc
 50
211.2641241162
 51
271.2641241162
  0
SPLINE
  5
1C6
330
1F
100
AcDbEntity
  8
0
  6
Continuous
 62
     7
370
    25
100
AcDbSpline
210
0.0
220
0.0
230
1.0
 70
    24
 71
     3
 72
    10
 73
     6
 74
     0
 42
0.000000001
 43
0.00000001
 40
0.0
 40
0.0
 40
0.0
 40
0.0
 40
0.2538172255998939
 40
0.6254155652320277
 40
1.0
 40
1.0
 40
1.0
 40
1.0
 10
67.49681244556582
 20
29.35161406811529
 30
0.0
 10
67.21247046962831
 20
29.34533957657436
 30
0.0
 10
66.5118407263954
 20
29.32987898415656
 30
0.0
 10
65.39675044079591
 20
29.30527261170211
 30
0.0
 10
64.58106373612866
 20
29.28727309083784
 30
0.0
 10
64.17158826483922
 20
29.27823731491221
 30
0.0
  0
ARC
  5
1C7
330
1F
100
AcDbEntity
  8
0
  6
Continuous
 62
     7
370
    25
100
AcDbCircle
 10
67.3423830793
 20
36.3499104016
 30
0.0
 40
7.750000000000018
100
AcDbArc
 50
236.6787450313
 51
245.849503201
  0
ARC
  5
1C8
330
1F
100
AcDbEntity
  8
0
  6
Continuous
 62
     7
370
    25
100
AcDbCircle
 10
67.3423830793
 20
36.3499104016
 30
0.0
 40
7.00000000000001
100
AcDbArc
 50
91.2641241162
 51
151.2641241162
  0
ARC
  5
1C9
330
1F
100
AcDbEntity
  8
0
  6
Continuous
 62
     7
370
    25
100
AcDbCircle
 10
67.3423830793
 20
36.3499104016
 30
0.0
 40
7.00000000000001
100
AcDbArc
 50
31.2641241162
 51
91.2641241162
  0
ARC
  5
1CA
330
1F
100
AcDbEntity
  8
0
  6
Continuous
 62
     7
370
    25
100
AcDbCircle
 10
67.3423830793
 20
36.3499104016
 30
0.0
 40
6.999999999999998
100
AcDbArc
 50
331.2641241162
 51
31.2641241162
  0
ARC
  5
1CB
330
1F
100
AcDbEntity
  8
0
  6
Continuous
 62
     7
370
    25
100
AcDbCircle
 10
67.3423830793
 20
36.3499104016
 30
0.0
 40
7.000000000000016
100
AcDbArc
 50
271.2641241162
 51
331.2641241162
  0
ARC
  5
1CC
330
1F
100
AcDbEntity
  8
0
  6
Continuous
 62
     7
370
    25
100
AcDbCircle
 10
67.3423830793
 20
36.3499104016
 30
0.0
 40
7.000000000000012
100
AcDbArc
 50
151.2641241162
 51
211.2641241162
  0
SPLINE
  5
1CD
330
1F
100
AcDbEntity
  8
0
  6
Continuous
 62
     7
370
    25
100
AcDbSpline
210
0.0
220
0.0
230
1.0
 70
    24
 71
     3
 72
     9
 73
     5
 74
     0
 42
0.000000001
 43
0.00000001
 40
0.0
 40
0.0
 40
0.0
 40
0.0
 40
0.4965134544262722
 40
1.0
 40
1.0
 40
1.0
 40
1.0
 10
59.60540003015101
 20
36.79890182363587
 30
0.0
 10
59.86685903837123
 20
37.27575738423909
 30
0.0
 10
60.39344901471404
 20
38.23616551890731
 30
0.0
 10
60.93287317907843
 20
39.21998097071316
 30
0.0
 10
61.20446598819325
 20
39.71531881402495
 30
0.0
  0
SPLINE
  5
1CE
330
1F
100
AcDbEntity
  8
0
  6
Continuous
 62
     7
370
    25
100
AcDbSpline
210
0.0
220
0.0
230
1.0
 70
    24
 71
     3
 72
    10
 73
     6
 74
     0
 42
0.000000001
 43
0.00000001
 40
0.0
 40
0.0
 40
0.0
 40
0.0
 40
0.3794523958445895
 40
0.7627140330548203
 40
0.9999999999999999
 40
0.9999999999999999
 40
0.9999999999999999
 40
0.9999999999999999
 10
61.35889535445319
 20
32.7170224805709
 30
0.0
 10
61.13818186886767
 20
33.08054496197666
 30
0.0
 10
60.69453920226699
 20
33.81123924915318
 30
0.0
 10
60.11854830944647
 20
34.75991548463456
 30
0.0
 10
59.76711771435659
 20
35.33873341064426
 30
0.0
 10
59.63273713176854
 20
35.56006271775735
 30
0.0
  0
ARC
  5
1CF
330
1F
100
AcDbEntity
  8
0
  6
Continuous
 62
     7
370
    25
100
AcDbCircle
 10
67.3423830793
 20
36.3499104016
 30
0.0
 40
7.750000000000208
100
AcDbArc
 50
176.6787450313
 51
185.849503201
  0
SPLINE
  5
1D0
330
1F
100
AcDbEntity
  8
0
  6
Continuous
 62
     7
370
    25
100
AcDbSpline
210
0.0
220
0.0
230
1.0
 70
    24
 71
     3
 72
    10
 73
     6
 74
     0
 42
0.000000001
 43
0.00000001
 40
0.0
 40
0.0
 40
0.0
 40
0.0
 40
0.2538172255998961
 40
0.625415565232028
 40
0.9999999999999999
 40
0.9999999999999999
 40
0.9999999999999999
 40
0.9999999999999999
 10
73.48030017041863
 20
32.98450198911379
 30
0.0
 10
73.34356305152016
 20
32.73511736881917
 30
0.0
 10
73.00663744569508
 20
32.1206239163236
 30
0.0
 10
72.47040204653587
 20
31.14262421525397
 30
0.0
 10
72.07814673652665
 20
30.42721904705076
 30
0.0
 10
71.88123421237644
 20
30.0680849987247
 30
0.0
  0
ARC
  5
1D1
330
1F
100
AcDbEntity
  8
0
  6
Continuous
 62
     7
370
    25
100
AcDbCircle
 10
67.3423830793
 20
36.3499104016
 30
0.0
 40
7.750000000000003
100
AcDbArc
 50
296.6787450313
 51
305.849503201
  0
SPLINE
  5
1D2
330
1F
100
AcDbEntity
  8
0
  6
Continuous
 62
     7
370
    25
100
AcDbSpline
210
0.0
220
0.0
230
1.0
 70
    24
 71
     3
 72
     9
 73
     5
 74
     0
 42
0.000000001
 43
0.00000001
 40
0.0
 40
0.0
 40
0.0
 40
0.0
 40
0.4965134544262714
 40
1.0
 40
1.0
 40
1.0
 40
1.0
 10
70.82203662629243
 20
29.42499082131831
 30
0.0
 10
70.27833809276407
 20
29.4129931841837
 30
0.0
 10
69.18330526196875
 20
29.38882941374072
 30
0.0
 10
68.06158400588704
 20
29.36407671759256
 30
0.0
 10
67.49681244556582
 20
29.35161406811529
 30
0.0
  0
SPLINE
  5
1D3
330
1F
100
AcDbEntity
  8
0
  6
Continuous
 62
     7
370
    25
100
AcDbSpline
210
0.0
220
0.0
230
1.0
 70
    24
 71
     3
 72
    10
 73
     6
 74
     0
 42
0.000000001
 43
0.00000001
 40
0.0
 40
0.0
 40
0.0
 40
0.0
 40
0.2538172255998956
 40
0.625415565232025
 40
1.0
 40
1.0
 40
1.0
 40
1.0
 10
67.18795371304604
 20
43.34820673502344
 30
0.0
 10
67.47229568898355
 20
43.35448122656437
 30
0.0
 10
68.17292543221646
 20
43.36994181898216
 30
0.0
 10
69.28801571781595
 20
43.39454819143661
 30
0.0
 10
70.10370242248322
 20
43.41254771230089
 30
0.0
 10
70.51317789377265
 20
43.42158348822652
 30
0.0
  0
ARC
  5
1D4
330
1F
100
AcDbEntity
  8
0
  6
Continuous
 62
     7
370
    25
100
AcDbCircle
 10
67.3423830793
 20
36.3499104016
 30
0.0
 40
7.750000000000191
100
AcDbArc
 50
56.6787450313
 51
65.849503201
  0
SPLINE
  5
1D5
330
1F
100
AcDbEntity
  8
0
  6
Continuous
 62
     7
370
    25
100
AcDbSpline
210
0.0
220
0.0
230
1.0
 70
    24
 71
     3
 72
    10
 73
     6
 74
     0
 42
0.000000001
 43
0.00000001
 40
0.0
 40
0.0
 40
0.0
 40
0.0
 40
0.2372861409041376
 40
0.6168892495779033
 40
1.0
 40
1.0
 40
1.0
 40
1.0
 10
71.59971258147404
 20
42.82583855975427
 30
0.0
 10
71.73409332166662
 20
42.60450899306122
 30
0.0
 10
72.0834522587679
 20
42.02910315694101
 30
0.0
 10
72.65938121251955
 20
41.08052893717453
 30
0.0
 10
73.10302751254112
 20
40.34982866563247
 30
0.0
 10
73.32587080415868
 20
39.98279832256782
 30
0.0
  0
SPLINE
  5
1D6
330
1F
100
AcDbEntity
  8
0
  6
Continuous
 62
     7
370
    25
100
AcDbSpline
210
0.0
220
0.0
230
1.0
 70
    24
 71
     3
 72
    13
 73
     9
 74
     0
 42
0.000000001
 43
0.00000001
 40
0.0
 40
0.0
 40
0.0
 40
0.0
 40
0.1268230747973237
 40
0.2538012478645081
 40
0.4394007242008279
 40
0.6254231095520115
 40
0.8125599864038194
 40
1.0
 40
1.0
 40
1.0
 40
1.0
 10
61.20446598819325
 20
39.71531881402495
 30
0.0
 10
61.27280616610503
 20
39.83995936120548
 30
0.0
 10
61.40957009854406
 20
40.08939288471444
 30
0.0
 10
61.64604869134071
 20
40.52068853104277
 30
0.0
 10
61.91362864483968
 20
41.00870762665739
 30
0.0
 10
62.21173350308126
 20
41.55239881658039
 30
0.0
 10
62.50883202940459
 20
42.09425463286562
 30
0.0
 10
62.70524565623227
 20
42.45247877962033
 30
0.0
 10
62.80353194623543
 20
42.63173580441404
 30
0.0
  0
ARC
  5
1D7
330
1F
100
AcDbEntity
  8
0
  6
Continuous
 62
     7
370
    25
100
AcDbCircle
 10
67.3423830793
 20
36.3499104016
 30
0.0
 40
7.750000000000011
100
AcDbArc
 50
116.6787450313
 51
125.849503201
  0
SPLINE
  5
1D8
330
1F
100
AcDbEntity
  8
0
  6
Continuous
 62
     7
370
    25
100
AcDbSpline
210
0.0
220
0.0
230
1.0
 70
    24
 71
     3
 72
    11
 73
     7
 74
     0
 42
0.000000001
 43
0.00000001
 40
0.0
 40
0.0
 40
0.0
 40
0.0
 40
0.2478837503188272
 40
0.4964627719235092
 40
0.7476697718984353
 40
1.0
 40
1.0
 40
1.0
 40
1.0
 10
63.86272953231945
 20
43.27482998182042
 30
0.0
 10
64.13323287573203
 20
43.28079910028926
 30
0.0
 10
64.67499827791137
 20
43.29275407957758
 30
0.0
 10
65.50224912877786
 20
43.31100878308687
 30
0.0
 10
66.34088679353655
 20
43.32951475610079
 30
0.0
 10
66.90517848933438
 20
43.34196681654742
 30
0.0
 10
67.18795371304604
 20
43.34820673502344
 30
0.0
  0
ARC
  5
1D9
330
1F
100
AcDbEntity
  8
0
  6
Continuous
 62
     7
370
    25
100
AcDbCircle
 10
67.3423830793
 20
36.3499104016
 30
0.0
 40
7.749999999999988
100
AcDbArc
 50
356.6787450313
 51
5.849503201
  0
SPLINE
  5
1DA
330
1F
100
AcDbEntity
  8
0
  6
Continuous
 62
     7
370
    25
100
AcDbSpline
210
0.0
220
0.0
230
1.0
 70
    24
 71
     3
 72
     9
 73
     5
 74
     0
 42
0.000000001
 43
0.00000001
 40
0.0
 40
0.0
 40
0.0
 40
0.0
 40
0.4965134544262732
 40
0.9999999999999999
 40
0.9999999999999999
 40
0.9999999999999999
 40
0.9999999999999999
 10
75.07936612846086
 20
35.90091897950285
 30
0.0
 10
74.81790712024063
 20
35.42406341889964
 30
0.0
 10
74.29131714389783
 20
34.46365528423141
 30
0.0
 10
73.75189297953345
 20
33.47983983242557
 30
0.0
 10
73.48030017041863
 20
32.98450198911379
 30
0.0
  0
SPLINE
  5
1DB
330
1F
100
AcDbEntity
  8
0
  6
Continuous
 62
     7
370
    25
100
AcDbSpline
210
0.0
220
0.0
230
1.0
 70
    24
 71
     3
 72
     9
 73
     5
 74
     0
 42
0.000000001
 43
0.00000001
 40
0.0
 40
0.0
 40
0.0
 40
0.0
 40
0.443655528290842
 40
1.0
 40
1.0
 40
1.0
 40
1.0
 10
73.32587080415868
 20
39.98279832256782
 30
0.0
 10
73.5841759397759
 20
39.5573611382004
 30
0.0
 10
74.16639597118701
 20
38.59842530344049
 30
0.0
 10
74.73544290890221
 20
37.66118599390843
 30
0.0
 10
75.05202902684309
 20
37.13975808538176
 30
0.0
  0
LINE
  5
1DC
330
1F
100
AcDbEntity
  8
0
  6
Continuous
 62
     8
370
    18
100
AcDbLine
 10
42.5148830793
 20
24.2499104016
 30
0.0
 11
42.5148830793
 21
14.2499104016
 31
0.0
  0
LINE
  5
1DD
330
1F
100
AcDbEntity
  8
0
  6
Continuous
 62
     8
370
    18
100
AcDbLine
 10
55.7152644352
 20
36.999403192
 30
0.0
 11
55.7152644352
 21
44.8499104016
 31
0.0
  0
LINE
  5
1DE
330
1F
100
AcDbEntity
  8
0
  6
Continuous
 62
     8
370
    18
100
AcDbLine
 10
78.9695017234
 20
36.999403192
 30
0.0
 11
78.9695017234
 21
44.8499104016
 31
0.0
  0
LINE
  5
1DF
330
1F
100
AcDbEntity
  8
0
  6
Continuous
 62
     8
370
    18
100
AcDbLine
 10
55.7152644352
 20
44.8499104016
 30
0.0
 11
78.9695017234
 21
44.8499104016
 31
0.0
  0
LINE
  5
1E0
330
1F
100
AcDbEntity
  8
0
  6
Continuous
 62
     8
370
    18
100
AcDbLine
 10
55.9838925133
 20
34.4999104016
 30
0.0
 11
55.9838925133
 21
28.2499104016
 31
0.0
  0
LINE
  5
1E1
330
1F
100
AcDbEntity
  8
0
  6
Continuous
 62
     8
370
    18
100
AcDbLine
 10
55.9838925133
 20
34.4999104016
 30
0.0
 11
58.3423830793
 21
34.4999104016
 31
0.0
  0
LWPOLYLINE
  5
1E2
330
1F
100
AcDbEntity
  8
0
  6
Continuous
 62
     8
370
    18
100
AcDbPolyline
 90
        9
 70
   128
 43
0.0
 10
80.0216283623
 20
36.9999104016
 10
79.9950019547
 20
36.9994023182
 10
79.7055258485
 20
36.9272531777
 10
79.4314978168
 20
36.7364786842
 10
79.1863097351
 20
36.4364020747
 10
78.9819440572
 20
36.0416882304
 10
78.8283882273
 20
35.5716269977
 10
78.7331465892
 20
35.0491904842
 10
78.7008736453
 20
34.4999104016
  0
LINE
  5
1E3
330
1F
100
AcDbEntity
  8
0
  6
Continuous
 62
     8
370
    18
100
AcDbLine
 10
76.3423830793
 20
34.4999104016
 30
0.0
 11
78.7008736453
 21
34.4999104016
 31
0.0
  0
LINE
  5
1E4
330
1F
100
AcDbEntity
  8
0
  6
Continuous
 62
     8
370
    18
100
AcDbLine
 10
78.7008736453
 20
34.4999104016
 30
0.0
 11
78.7008736453
 21
28.2499104016
 31
0.0
  0
LWPOLYLINE
  5
1E5
330
1F
100
AcDbEntity
  8
0
  6
Continuous
 62
     8
370
    18
100
AcDbPolyline
 90
        9
 70
   128
 43
0.0
 10
54.6631377963
 20
36.9999104016
 10
54.6897642039
 20
36.9994023182
 10
54.9792403101
 20
36.9272531777
 10
55.2532683418
 20
36.7364786842
 10
55.4984564235
 20
36.4364020747
 10
55.7028221014
 20
36.0416882304
 10
55.8563779313
 20
35.5716269977
 10
55.9516195694
 20
35.0491904842
 10
55.9838925133
 20
34.4999104016
  0
LINE
  5
1E6
330
1F
100
AcDbEntity
  8
0
  6
Continuous
 62
     8
370
    18
100
AcDbLine
 10
78.7008736453
 20
34.4999104016
 30
0.0
 11
88.8423830793
 21
34.4999104016
 31
0.0
  0
LINE
  5
1E7
330
1F
100
AcDbEntity
  8
0
  6
Continuous
 62
     8
370
    18
100
AcDbLine
 10
45.8423830793
 20
34.4999104016
 30
0.0
 11
55.9838925133
 21
34.4999104016
 31
0.0
  0
LINE
  5
1E8
330
1F
100
AcDbEntity
  8
0
  6
Continuous
 62
     8
370
    18
100
AcDbLine
 10
69.8423830793
 20
36.3499104016
 30
0.0
 11
64.8423830793
 21
36.3499104016
 31
0.0
  0
LINE
  5
1E9
330
1F
100
AcDbEntity
  8
0
  6
Continuous
 62
     8
370
    18
100
AcDbLine
 10
70.8423830793
 20
89.8299104016
 30
0.0
 11
63.8423830793
 21
89.8299104016
 31
0.0
  0
LINE
  5
1EA
330
1F
100
AcDbEntity
  8
0
  6
Continuous
 62
     8
370
    18
100
AcDbLine
 10
51.8423830793
 20
89.8299104016
 30
0.0
 11
44.8423830793
 21
89.8299104016
 31
0.0
  0
LINE
  5
1EB
330
1F
100
AcDbEntity
  8
0
  6
Continuous
 62
     8
370
    18
100
AcDbLine
 10
67.5423830793
 20
83.0299104016
 30
0.0
 11
67.5423830793
 21
84.5299104016
 31
0.0
  0
LINE
  5
1EC
330
1F
100
AcDbEntity
  8
0
  6
Continuous
 62
     8
370
    18
100
AcDbLine
 10
52.3423830793
 20
84.5299104016
 30
0.0
 11
52.3423830793
 21
83.0299104016
 31
0.0
  0
LINE
  5
1ED
330
1F
100
AcDbEntity
  8
0
  6
Continuous
 62
     8
370
    18
100
AcDbLine
 10
76.7774119219
 20
83.0299104016
 30
0.0
 11
76.7774119219
 21
84.5299104016
 31
0.0
  0
LINE
  5
1EE
330
1F
100
AcDbEntity
  8
0
  6
Continuous
 62
     8
370
    18
100
AcDbLine
 10
42.3423830793
 20
86.0299104016
 30
0.0
 11
44.5423830793
 21
86.0299104016
 31
0.0
  0
LINE
  5
1EF
330
1F
100
AcDbEntity
  8
0
  6
Continuous
 62
     8
370
    18
100
AcDbLine
 10
57.4073542368
 20
86.0299104016
 30
0.0
 11
60.3423830793
 21
86.0299104016
 31
0.0
  0
LINE
  5
1F0
330
1F
100
AcDbEntity
  8
0
  6
Continuous
 62
     8
370
    18
100
AcDbLine
 10
74.3423830793
 20
86.0299104016
 30
0.0
 11
77.2774119219
 21
86.0299104016
 31
0.0
  0
LINE
  5
1F1
330
1F
100
AcDbEntity
  8
0
  6
Continuous
 62
     8
370
    18
100
AcDbLine
 10
84.2774119219
 20
86.0299104016
 30
0.0
 11
92.3423830793
 21
86.0299104016
 31
0.0
  0
ARC
  5
1F2
330
1F
100
AcDbEntity
  8
0
  6
Continuous
 62
     8
370
    18
100
AcDbCircle
 10
78.9842749632
 20
76.6618783462
 30
0.0
 40
0.4105729410362419
100
AcDbArc
 50
120.254374493
 51
184.4656719541
  0
ARC
  5
1F3
330
1F
100
AcDbEntity
  8
0
  6
Continuous
 62
     8
370
    18
100
AcDbCircle
 10
55.758694927
 20
76.6835667744
 30
0.0
 40
0.3551988325611529
100
AcDbArc
 50
351.3116338332
 51
77.179422318
  0
LINE
  5
1F4
330
1F
100
AcDbEntity
  8
0
  6
Continuous
 62
     8
370
    18
100
AcDbLine
 10
72.5423830793
 20
83.4299104016
 30
0.0
 11
74.3423830793
 21
83.4299104016
 31
0.0
  0
LINE
  5
1F5
330
1F
100
AcDbEntity
  8
0
  6
Continuous
 62
     8
370
    18
100
AcDbLine
 10
97.9698830793
 20
23.5070835907
 30
0.0
 11
97.9698830793
 21
14.2499104016
 31
0.0
  0
LINE
  5
1F6
330
1F
100
AcDbEntity
  8
0
  6
Continuous
 62
     8
370
    18
100
AcDbLine
 10
97.9698830793
 20
24.2499104016
 30
0.0
 11
97.9698830793
 21
23.5070835907
 31
0.0
  0
LINE
  5
1F7
330
1F
100
AcDbEntity
  8
0
  6
Continuous
 62
     8
370
    18
100
AcDbLine
 10
92.1698830793
 20
14.2499104016
 30
0.0
 11
92.1698830793
 21
24.2499104016
 31
0.0
  0
LINE
  5
1F8
330
1F
100
AcDbEntity
  8
0
  6
Continuous
 62
     7
370
    25
100
AcDbLine
 10
170.7830266615
 20
70.7399104016
 30
0.0
 11
170.7830266615
 21
58.2399104016
 31
0.0
  0
LINE
  5
1F9
330
1F
100
AcDbEntity
  8
0
  6
Continuous
 62
     7
370
    25
100
AcDbLine
 10
170.8330266615
 20
55.9499104016
 30
0.0
 11
170.8330266615
 21
46.8499104016
 31
0.0
  0
LINE
  5
1FA
330
1F
100
AcDbEntity
  8
0
  6
Continuous
 62
     7
370
    25
100
AcDbLine
 10
217.8330266615
 20
46.8499104016
 30
0.0
 11
217.8330266615
 21
55.9499104016
 31
0.0
  0
LINE
  5
1FB
330
1F
100
AcDbEntity
  8
0
  6
Continuous
 62
     7
370
    25
100
AcDbLine
 10
170.8330266615
 20
46.8499104016
 30
0.0
 11
171.7330266615
 21
45.9499104016
 31
0.0
  0
LINE
  5
1FC
330
1F
100
AcDbEntity
  8
0
  6
Continuous
 62
     7
370
    25
100
AcDbLine
 10
216.9330266615
 20
45.9499104016
 30
0.0
 11
217.8330266615
 21
46.8499104016
 31
0.0
  0
LINE
  5
1FD
330
1F
100
AcDbEntity
  8
0
  6
Continuous
 62
     7
370
    25
100
AcDbLine
 10
217.8330266615
 20
55.9499104016
 30
0.0
 11
217.3330266615
 21
56.4499104016
 31
0.0
  0
LINE
  5
1FE
330
1F
100
AcDbEntity
  8
0
  6
Continuous
 62
     7
370
    25
100
AcDbLine
 10
171.3330266615
 20
56.4499104016
 30
0.0
 11
170.8330266615
 21
55.9499104016
 31
0.0
  0
LINE
  5
1FF
330
1F
100
AcDbEntity
  8
0
  6
Continuous
 62
     7
370
    25
100
AcDbLine
 10
170.8330266615
 20
71.9899104016
 30
0.0
 11
171.3330266615
 21
71.4899104016
 31
0.0
  0
LINE
  5
200
330
1F
100
AcDbEntity
  8
0
  6
Continuous
 62
     7
370
    25
100
AcDbLine
 10
217.3330266615
 20
71.4899104016
 30
0.0
 11
217.8330266615
 21
71.9899104016
 31
0.0
  0
LINE
  5
201
330
1F
100
AcDbEntity
  8
0
  6
Continuous
 62
     7
370
    25
100
AcDbLine
 10
170.8330266615
 20
75.4899104016
 30
0.0
 11
170.8330266615
 21
71.9899104016
 31
0.0
  0
LINE
  5
202
330
1F
100
AcDbEntity
  8
0
  6
Continuous
 62
     7
370
    25
100
AcDbLine
 10
217.8330266615
 20
71.9899104016
 30
0.0
 11
217.8330266615
 21
75.4899104016
 31
0.0
  0
LINE
  5
203
330
1F
100
AcDbEntity
  8
0
  6
Continuous
 62
     7
370
    25
100
AcDbLine
 10
217.8330266615
 20
75.4899104016
 30
0.0
 11
217.3330266615
 21
75.9899104016
 31
0.0
  0
LINE
  5
204
330
1F
100
AcDbEntity
  8
0
  6
Continuous
 62
     7
370
    25
100
AcDbLine
 10
171.3330266615
 20
75.9899104016
 30
0.0
 11
170.8330266615
 21
75.4899104016
 31
0.0
  0
ARC
  5
205
330
1F
100
AcDbEntity
  8
0
  6
Continuous
 62
     7
370
    25
100
AcDbCircle
 10
218.3330266615
 20
34.4999104016
 30
0.0
 40
2.500000000000001
100
AcDbArc
 50
101.5369590328
 51
180.0
  0
LINE
  5
206
330
1F
100
AcDbEntity
  8
0
  6
Continuous
 62
     7
370
    25
100
AcDbLine
 10
169.8330266615
 20
45.4499104016
 30
0.0
 11
169.8330266615
 21
44.8499104016
 31
0.0
  0
LINE
  5
207
330
1F
100
AcDbEntity
  8
0
  6
Continuous
 62
     7
370
    25
100
AcDbLine
 10
218.8330266615
 20
36.9494001444
 30
0.0
 11
218.8330266615
 21
45.4499104016
 31
0.0
  0
LINE
  5
208
330
1F
100
AcDbEntity
  8
0
  6
Continuous
 62
     7
370
    25
100
AcDbLine
 10
218.8330266615
 20
45.4499104016
 30
0.0
 11
218.3330266615
 21
45.9499104016
 31
0.0
  0
LINE
  5
209
330
1F
100
AcDbEntity
  8
0
  6
Continuous
 62
     7
370
    25
100
AcDbLine
 10
170.3330266615
 20
45.9499104016
 30
0.0
 11
169.8330266615
 21
45.4499104016
 31
0.0
  0
LINE
  5
20A
330
1F
100
AcDbEntity
  8
0
  6
Continuous
 62
     7
370
    25
100
AcDbLine
 10
215.8330266615
 20
28.2499104016
 30
0.0
 11
215.8330266615
 21
34.4999104016
 31
0.0
  0
ARC
  5
20B
330
1F
100
AcDbEntity
  8
0
  6
Continuous
 62
     7
370
    25
100
AcDbCircle
 10
169.4330266615
 20
44.8499104016
 30
0.0
 40
0.4000000000000057
100
AcDbArc
 50
270.0
 51
0.0
  0
LINE
  5
20C
330
1F
100
AcDbEntity
  8
0
  6
Continuous
 62
     7
370
    25
100
AcDbLine
 10
209.8330266615
 20
89.8299104016
 30
0.0
 11
209.8330266615
 21
88.8299104016
 31
0.0
  0
LINE
  5
20D
330
1F
100
AcDbEntity
  8
0
  6
Continuous
 62
     7
370
    25
100
AcDbLine
 10
216.8330266615
 20
86.3299104016
 30
0.0
 11
216.8330266615
 21
89.8299104016
 31
0.0
  0
ARC
  5
20E
330
1F
100
AcDbEntity
  8
0
  6
Continuous
 62
     7
370
    25
100
AcDbCircle
 10
216.3330266615
 20
89.8299104016
 30
0.0
 40
0.5
100
AcDbArc
 50
0.0
 51
90.0
  0
ARC
  5
20F
330
1F
100
AcDbEntity
  8
0
  6
Continuous
 62
     7
370
    25
100
AcDbCircle
 10
210.3330266615
 20
89.8299104016
 30
0.0
 40
0.5
100
AcDbArc
 50
90.0
 51
180.0
  0
LINE
  5
210
330
1F
100
AcDbEntity
  8
0
  6
Continuous
 62
     7
370
    25
100
AcDbLine
 10
190.8330266615
 20
89.8299104016
 30
0.0
 11
190.8330266615
 21
89.0299104016
 31
0.0
  0
LINE
  5
211
330
1F
100
AcDbEntity
  8
0
  6
Continuous
 62
     7
370
    25
100
AcDbLine
 10
197.8330266615
 20
89.0299104016
 30
0.0
 11
197.8330266615
 21
89.8299104016
 31
0.0
  0
ARC
  5
212
330
1F
100
AcDbEntity
  8
0
  6
Continuous
 62
     7
370
    25
100
AcDbCircle
 10
197.3330266615
 20
89.8299104016
 30
0.0
 40
0.5000000000000284
100
AcDbArc
 50
0.0
 51
90.0
  0
ARC
  5
213
330
1F
100
AcDbEntity
  8
0
  6
Continuous
 62
     7
370
    25
100
AcDbCircle
 10
191.3330266615
 20
89.8299104016
 30
0.0
 40
0.5
100
AcDbArc
 50
90.0
 51
180.0
  0
LINE
  5
214
330
1F
100
AcDbEntity
  8
0
  6
Continuous
 62
     7
370
    25
100
AcDbLine
 10
176.8979978189
 20
83.8299104016
 30
0.0
 11
176.8979978189
 21
83.0299104016
 31
0.0
  0
LINE
  5
215
330
1F
100
AcDbEntity
  8
0
  6
Continuous
 62
     7
370
    25
100
AcDbLine
 10
184.8979978189
 20
83.0299104016
 30
0.0
 11
184.8979978189
 21
83.8299104016
 31
0.0
  0
LINE
  5
216
330
1F
100
AcDbEntity
  8
0
  6
Continuous
 62
     7
370
    25
100
AcDbLine
 10
217.3330266615
 20
84.5299104016
 30
0.0
 11
217.3330266615
 21
85.3299104016
 31
0.0
  0
LINE
  5
217
330
1F
100
AcDbEntity
  8
0
  6
Continuous
 62
     7
370
    25
100
AcDbLine
 10
177.3979978189
 20
88.4299104015
 30
0.0
 11
177.3979978189
 21
84.8299104016
 31
0.0
  0
LINE
  5
218
330
1F
100
AcDbEntity
  8
0
  6
Continuous
 62
     7
370
    25
100
AcDbLine
 10
184.3979978189
 20
84.8299104016
 30
0.0
 11
184.3979978189
 21
88.4299104015
 31
0.0
  0
LINE
  5
219
330
1F
100
AcDbEntity
  8
0
  6
Continuous
 62
     7
370
    25
100
AcDbLine
 10
184.3979978189
 20
88.4299104015
 30
0.0
 11
183.9979978189
 21
88.8299104016
 31
0.0
  0
LINE
  5
21A
330
1F
100
AcDbEntity
  8
0
  6
Continuous
 62
     7
370
    25
100
AcDbLine
 10
177.7979978189
 20
88.8299104016
 30
0.0
 11
177.3979978189
 21
88.4299104015
 31
0.0
  0
LINE
  5
21B
330
1F
100
AcDbEntity
  8
0
  6
Continuous
 62
     7
370
    25
100
AcDbLine
 10
178.8979978189
 20
77.0299104016
 30
0.0
 11
178.8979978189
 21
76.6299104016
 31
0.0
  0
LINE
  5
21C
330
1F
100
AcDbEntity
  8
0
  6
Continuous
 62
     7
370
    25
100
AcDbLine
 10
178.8979978189
 20
57.4899104016
 30
0.0
 11
178.8979978189
 21
57.0899104016
 31
0.0
  0
LINE
  5
21D
330
1F
100
AcDbEntity
  8
0
  6
Continuous
 62
     7
370
    25
100
AcDbLine
 10
182.8979978189
 20
57.0899104016
 30
0.0
 11
182.8979978189
 21
57.4899104016
 31
0.0
  0
LINE
  5
21E
330
1F
100
AcDbEntity
  8
0
  6
Continuous
 62
     7
370
    25
100
AcDbLine
 10
182.8979978189
 20
76.6299104016
 30
0.0
 11
182.8979978189
 21
77.0299104016
 31
0.0
  0
LINE
  5
21F
330
1F
100
AcDbEntity
  8
0
  6
Continuous
 62
     7
370
    25
100
AcDbLine
 10
204.268055504
 20
88.4299104015
 30
0.0
 11
204.268055504
 21
84.8299104016
 31
0.0
  0
LINE
  5
220
330
1F
100
AcDbEntity
  8
0
  6
Continuous
 62
     7
370
    25
100
AcDbLine
 10
211.268055504
 20
84.8299104016
 30
0.0
 11
211.268055504
 21
88.4299104015
 31
0.0
  0
LINE
  5
221
330
1F
100
AcDbEntity
  8
0
  6
Continuous
 62
     7
370
    25
100
AcDbLine
 10
211.268055504
 20
88.4299104015
 30
0.0
 11
210.868055504
 21
88.8299104016
 31
0.0
  0
LINE
  5
222
330
1F
100
AcDbEntity
  8
0
  6
Continuous
 62
     7
370
    25
100
AcDbLine
 10
204.668055504
 20
88.8299104016
 30
0.0
 11
204.268055504
 21
88.4299104015
 31
0.0
  0
LINE
  5
223
330
1F
100
AcDbEntity
  8
0
  6
Continuous
 62
     7
370
    25
100
AcDbLine
 10
205.768055504
 20
77.0299104016
 30
0.0
 11
205.768055504
 21
76.6299104016
 31
0.0
  0
LINE
  5
224
330
1F
100
AcDbEntity
  8
0
  6
Continuous
 62
     7
370
    25
100
AcDbLine
 10
205.768055504
 20
57.4899104016
 30
0.0
 11
205.768055504
 21
57.0899104016
 31
0.0
  0
LINE
  5
225
330
1F
100
AcDbEntity
  8
0
  6
Continuous
 62
     7
370
    25
100
AcDbLine
 10
209.768055504
 20
57.0899104016
 30
0.0
 11
209.768055504
 21
57.4899104016
 31
0.0
  0
LINE
  5
226
330
1F
100
AcDbEntity
  8
0
  6
Continuous
 62
     7
370
    25
100
AcDbLine
 10
209.768055504
 20
76.6299104016
 30
0.0
 11
209.768055504
 21
77.0299104016
 31
0.0
  0
LINE
  5
227
330
1F
100
AcDbEntity
  8
0
  6
Continuous
 62
     7
370
    25
100
AcDbLine
 10
177.380100189
 20
88.4299104015
 30
0.0
 11
177.380100189
 21
84.8299104016
 31
0.0
  0
LINE
  5
228
330
1F
100
AcDbEntity
  8
0
  6
Continuous
 62
     7
370
    25
100
AcDbLine
 10
177.780100189
 20
88.8299104016
 30
0.0
 11
177.380100189
 21
88.4299104015
 31
0.0
  0
LINE
  5
229
330
1F
100
AcDbEntity
  8
0
  6
Continuous
 62
     7
370
    25
100
AcDbLine
 10
170.8330266615
 20
82.5299104016
 30
0.0
 11
170.8330266615
 21
77.5299104016
 31
0.0
  0
LINE
  5
22A
330
1F
100
AcDbEntity
  8
0
  6
Continuous
 62
     7
370
    25
100
AcDbLine
 10
217.8330266615
 20
77.5299104016
 30
0.0
 11
217.8330266615
 21
82.5299104016
 31
0.0
  0
LINE
  5
22B
330
1F
100
AcDbEntity
  8
0
  6
Continuous
 62
     7
370
    25
100
AcDbLine
 10
217.8330266615
 20
82.5299104016
 30
0.0
 11
217.3330266615
 21
83.0299104016
 31
0.0
  0
LINE
  5
22C
330
1F
100
AcDbEntity
  8
0
  6
Continuous
 62
     7
370
    25
100
AcDbLine
 10
171.3330266615
 20
83.0299104016
 30
0.0
 11
170.8330266615
 21
82.5299104016
 31
0.0
  0
LINE
  5
22D
330
1F
100
AcDbEntity
  8
0
  6
Continuous
 62
     7
370
    25
100
AcDbLine
 10
170.8330266615
 20
77.5299104016
 30
0.0
 11
171.3330266615
 21
77.0299104016
 31
0.0
  0
LINE
  5
22E
330
1F
100
AcDbEntity
  8
0
  6
Continuous
 62
     7
370
    25
100
AcDbLine
 10
217.3330266615
 20
77.0299104016
 30
0.0
 11
217.8330266615
 21
77.5299104016
 31
0.0
  0
ARC
  5
22F
330
1F
100
AcDbEntity
  8
0
  6
Continuous
 62
     7
370
    25
100
AcDbCircle
 10
177.4330266615
 20
76.6299104016
 30
0.0
 40
0.4000000000000341
100
AcDbArc
 50
0.0
 51
90.0
  0
ARC
  5
230
330
1F
100
AcDbEntity
  8
0
  6
Continuous
 62
     7
370
    25
100
AcDbCircle
 10
211.2330266615
 20
76.6299104016
 30
0.0
 40
0.4000000000000057
100
AcDbArc
 50
90.0
 51
180.0
  0
ARC
  5
231
330
1F
100
AcDbEntity
  8
0
  6
Continuous
 62
     7
370
    25
100
AcDbCircle
 10
186.9330266615
 20
83.4299104016
 30
0.0
 40
0.4000000000000057
100
AcDbArc
 50
270.0
 51
0.0
  0
LINE
  5
232
330
1F
100
AcDbEntity
  8
0
  6
Continuous
 62
     7
370
    25
100
AcDbLine
 10
187.3330266615
 20
88.5299104016
 30
0.0
 11
187.3330266615
 21
83.4299104016
 31
0.0
  0
LINE
  5
233
330
1F
100
AcDbEntity
  8
0
  6
Continuous
 62
     7
370
    25
100
AcDbLine
 10
201.3330266615
 20
84.5299104016
 30
0.0
 11
201.3330266615
 21
88.5299104016
 31
0.0
  0
LINE
  5
234
330
1F
100
AcDbEntity
  8
0
  6
Continuous
 62
     7
370
    25
100
AcDbLine
 10
201.3330266615
 20
88.5299104016
 30
0.0
 11
200.8330266615
 21
89.0299104016
 31
0.0
  0
LINE
  5
235
330
1F
100
AcDbEntity
  8
0
  6
Continuous
 62
     7
370
    25
100
AcDbLine
 10
187.8330266615
 20
89.0299104016
 30
0.0
 11
187.3330266615
 21
88.5299104016
 31
0.0
  0
LINE
  5
236
330
1F
100
AcDbEntity
  8
0
  6
Continuous
 62
     7
370
    25
100
AcDbLine
 10
171.5830266615
 20
76.6299104016
 30
0.0
 11
171.5830266615
 21
75.9899104016
 31
0.0
  0
LINE
  5
237
330
1F
100
AcDbEntity
  8
0
  6
Continuous
 62
     7
370
    25
100
AcDbLine
 10
217.0830266615
 20
75.9899104016
 30
0.0
 11
217.0830266615
 21
76.6299104016
 31
0.0
  0
LINE
  5
238
330
1F
100
AcDbEntity
  8
0
  6
Continuous
 62
     7
370
    25
100
AcDbLine
 10
171.5830266615
 20
57.0899104016
 30
0.0
 11
171.5830266615
 21
56.4499104016
 31
0.0
  0
LINE
  5
239
330
1F
100
AcDbEntity
  8
0
  6
Continuous
 62
     7
370
    25
100
AcDbLine
 10
217.0830266615
 20
56.4499104016
 30
0.0
 11
217.0830266615
 21
57.0899104016
 31
0.0
  0
LINE
  5
23A
330
1F
100
AcDbEntity
  8
0
  6
Continuous
 62
     7
370
    25
100
AcDbLine
 10
170.8330266615
 20
70.9899104016
 30
0.0
 11
170.8330266615
 21
70.7399104016
 31
0.0
  0
LINE
  5
23B
330
1F
100
AcDbEntity
  8
0
  6
Continuous
 62
     7
370
    25
100
AcDbLine
 10
170.8330266615
 20
58.2399104016
 30
0.0
 11
170.8330266615
 21
57.9899104016
 31
0.0
  0
LINE
  5
23C
330
1F
100
AcDbEntity
  8
0
  6
Continuous
 62
     7
370
    25
100
AcDbLine
 10
217.8330266615
 20
57.9899104016
 30
0.0
 11
217.8330266615
 21
70.9899104016
 31
0.0
  0
LINE
  5
23D
330
1F
100
AcDbEntity
  8
0
  6
Continuous
 62
     7
370
    25
100
AcDbLine
 10
217.8330266615
 20
70.9899104016
 30
0.0
 11
217.3330266615
 21
71.4899104016
 31
0.0
  0
LINE
  5
23E
330
1F
100
AcDbEntity
  8
0
  6
Continuous
 62
     7
370
    25
100
AcDbLine
 10
171.3330266615
 20
71.4899104016
 30
0.0
 11
170.8330266615
 21
70.9899104016
 31
0.0
  0
LINE
  5
23F
330
1F
100
AcDbEntity
  8
0
  6
Continuous
 62
     7
370
    25
100
AcDbLine
 10
170.8330266615
 20
57.9899104016
 30
0.0
 11
171.3330266615
 21
57.4899104016
 31
0.0
  0
LINE
  5
240
330
1F
100
AcDbEntity
  8
0
  6
Continuous
 62
     7
370
    25
100
AcDbLine
 10
217.3330266615
 20
57.4899104016
 30
0.0
 11
217.8330266615
 21
57.9899104016
 31
0.0
  0
ARC
  5
241
330
1F
100
AcDbEntity
  8
0
  6
Continuous
 62
     7
370
    25
100
AcDbCircle
 10
211.179436823
 20
57.0899104016
 30
0.0
 40
0.4000000000000105
100
AcDbArc
 50
90.0
 51
150.0
  0
ARC
  5
242
330
1F
100
AcDbEntity
  8
0
  6
Continuous
 62
     7
370
    25
100
AcDbCircle
 10
177.4866164999
 20
57.0899104016
 30
0.0
 40
0.4000000000000057
100
AcDbArc
 50
30.0
 51
90.0
  0
LINE
  5
243
330
1F
100
AcDbEntity
  8
0
  6
Continuous
 62
     7
370
    25
100
AcDbLine
 10
177.8330266615
 20
57.2899104016
 30
0.0
 11
178.0330266615
 21
57.0899104016
 31
0.0
  0
LINE
  5
244
330
1F
100
AcDbEntity
  8
0
  6
Continuous
 62
     7
370
    25
100
AcDbLine
 10
210.6330266615
 20
57.0899104016
 30
0.0
 11
210.8330266615
 21
57.2899104016
 31
0.0
  0
LINE
  5
245
330
1F
100
AcDbEntity
  8
0
  6
Continuous
 62
     7
370
    25
100
AcDbLine
 10
217.1330266615
 20
85.3299104016
 30
0.0
 11
217.1330266615
 21
86.3299104016
 31
0.0
  0
LINE
  5
246
330
1F
100
AcDbEntity
  8
0
  6
Continuous
 62
     7
370
    25
100
AcDbLine
 10
177.0979978189
 20
84.8299104016
 30
0.0
 11
177.0979978189
 21
83.8299104016
 31
0.0
  0
LINE
  5
247
330
1F
100
AcDbEntity
  8
0
  6
Continuous
 62
     7
370
    25
100
AcDbLine
 10
184.6979978189
 20
83.8299104016
 30
0.0
 11
184.6979978189
 21
84.8299104016
 31
0.0
  0
LINE
  5
248
330
1F
100
AcDbEntity
  8
0
  6
Continuous
 62
     7
370
    25
100
AcDbLine
 10
203.968055504
 20
84.8299104016
 30
0.0
 11
203.968055504
 21
84.5299104016
 31
0.0
  0
LINE
  5
249
330
1F
100
AcDbEntity
  8
0
  6
Continuous
 62
     7
370
    25
100
AcDbLine
 10
211.568055504
 20
84.5299104016
 30
0.0
 11
211.568055504
 21
84.8299104016
 31
0.0
  0
LINE
  5
24A
330
1F
100
AcDbEntity
  8
0
  6
Continuous
 62
     7
370
    25
100
AcDbLine
 10
177.080100189
 20
84.8299104016
 30
0.0
 11
177.080100189
 21
84.5299104016
 31
0.0
  0
LINE
  5
24B
330
1F
100
AcDbEntity
  8
0
  6
Continuous
 62
     7
370
    25
100
AcDbLine
 10
165.3330266615
 20
42.9274104016
 30
0.0
 11
163.7555266615
 21
41.3499104016
 31
0.0
  0
LINE
  5
24C
330
1F
100
AcDbEntity
  8
0
  6
Continuous
 62
     7
370
    25
100
AcDbLine
 10
163.7555266615
 20
31.3499104016
 30
0.0
 11
165.3330266615
 21
29.7724104016
 31
0.0
  0
LINE
  5
24D
330
1F
100
AcDbEntity
  8
0
  6
Continuous
 62
     7
370
    25
100
AcDbLine
 10
152.8770266615
 20
29.7714104016
 30
0.0
 11
154.4555266615
 21
31.3499104016
 31
0.0
  0
LINE
  5
24E
330
1F
100
AcDbEntity
  8
0
  6
Continuous
 62
     7
370
    25
100
AcDbLine
 10
154.4555266615
 20
41.3499104016
 30
0.0
 11
152.8770266615
 21
42.9284104016
 31
0.0
  0
LINE
  5
24F
330
1F
100
AcDbEntity
  8
0
  6
Continuous
 62
     7
370
    25
100
AcDbLine
 10
152.8770266615
 20
42.9284104016
 30
0.0
 11
146.9340266615
 21
42.9284104016
 31
0.0
  0
LINE
  5
250
330
1F
100
AcDbEntity
  8
0
  6
Continuous
 62
     7
370
    25
100
AcDbLine
 10
146.9340266615
 20
29.7714104016
 30
0.0
 11
152.8770266615
 21
29.7714104016
 31
0.0
  0
LINE
  5
251
330
1F
100
AcDbEntity
  8
0
  6
Continuous
 62
     7
370
    25
100
AcDbLine
 10
146.9340266615
 20
42.9284104016
 30
0.0
 11
145.6055266615
 21
41.5999104016
 31
0.0
  0
LINE
  5
252
330
1F
100
AcDbEntity
  8
0
  6
Continuous
 62
     7
370
    25
100
AcDbLine
 10
145.6055266615
 20
31.0999104016
 30
0.0
 11
146.9340266615
 21
29.7714104016
 31
0.0
  0
ARC
  5
253
330
1F
100
AcDbEntity
  8
0
  6
Continuous
 62
     7
370
    25
100
AcDbCircle
 10
162.0055266615
 20
41.7499104016
 30
0.0
 40
0.3999999999999915
100
AcDbArc
 50
180.0
 51
270.0
  0
ARC
  5
254
330
1F
100
AcDbEntity
  8
0
  6
Continuous
 62
     7
370
    25
100
AcDbCircle
 10
162.0055266615
 20
30.9499104016
 30
0.0
 40
0.4000000000000021
100
AcDbArc
 50
90.0
 51
180.0
  0
ARC
  5
255
330
1F
100
AcDbEntity
  8
0
  6
Continuous
 62
     7
370
    25
100
AcDbCircle
 10
156.2055266615
 20
30.9499104016
 30
0.0
 40
0.4000000000000057
100
AcDbArc
 50
0.0
 51
90.0
  0
ARC
  5
256
330
1F
100
AcDbEntity
  8
0
  6
Continuous
 62
     7
370
    25
100
AcDbCircle
 10
156.2055266615
 20
41.7499104016
 30
0.0
 40
0.4000000000000057
100
AcDbArc
 50
270.0
 51
0.0
  0
LINE
  5
257
330
1F
100
AcDbEntity
  8
0
  6
Continuous
 62
     7
370
    25
100
AcDbLine
 10
163.7555266615
 20
41.3499104016
 30
0.0
 11
162.0055266615
 21
41.3499104016
 31
0.0
  0
LINE
  5
258
330
1F
100
AcDbEntity
  8
0
  6
Continuous
 62
     7
370
    25
100
AcDbLine
 10
162.0055266615
 20
31.3499104016
 30
0.0
 11
163.7555266615
 21
31.3499104016
 31
0.0
  0
LINE
  5
259
330
1F
100
AcDbEntity
  8
0
  6
Continuous
 62
     7
370
    25
100
AcDbLine
 10
156.2055266615
 20
41.3499104016
 30
0.0
 11
154.4555266615
 21
41.3499104016
 31
0.0
  0
LINE
  5
25A
330
1F
100
AcDbEntity
  8
0
  6
Continuous
 62
     7
370
    25
100
AcDbLine
 10
154.4555266615
 20
31.3499104016
 30
0.0
 11
156.2055266615
 21
31.3499104016
 31
0.0
  0
LINE
  5
25B
330
1F
100
AcDbEntity
  8
0
  6
Continuous
 62
     7
370
    25
100
AcDbLine
 10
175.8770457414
 20
70.7399104016
 30
0.0
 11
175.8770457414
 21
58.2399104016
 31
0.0
  0
LINE
  5
25C
330
1F
100
AcDbEntity
  8
0
  6
Continuous
 62
     7
370
    25
100
AcDbLine
 10
170.7830266615
 20
58.2399104016
 30
0.0
 11
175.8770457414
 21
58.2399104016
 31
0.0
  0
LINE
  5
25D
330
1F
100
AcDbEntity
  8
0
  6
Continuous
 62
     7
370
    25
100
AcDbLine
 10
170.7830266615
 20
70.7399104016
 30
0.0
 11
175.8770457414
 21
70.7399104016
 31
0.0
  0
LINE
  5
25E
330
1F
100
AcDbEntity
  8
0
  6
Continuous
 62
     7
370
    25
100
AcDbLine
 10
175.9162304143
 20
70.7399104016
 30
0.0
 11
175.9162304143
 21
58.2399104016
 31
0.0
  0
LINE
  5
25F
330
1F
100
AcDbEntity
  8
0
  6
Continuous
 62
     7
370
    25
100
AcDbLine
 10
175.8770457414
 20
58.2399104016
 30
0.0
 11
175.9162304143
 21
58.2399104016
 31
0.0
  0
LINE
  5
260
330
1F
100
AcDbEntity
  8
0
  6
Continuous
 62
     7
370
    25
100
AcDbLine
 10
175.8770457414
 20
70.7399104016
 30
0.0
 11
175.9162304143
 21
70.7399104016
 31
0.0
  0
SPLINE
  5
261
330
1F
100
AcDbEntity
  8
0
  6
Continuous
 62
     7
370
    25
100
AcDbSpline
210
0.0
220
0.0
230
1.0
 70
    24
 71
     3
 72
    11
 73
     7
 74
     0
 42
0.000000001
 43
0.00000001
 40
0.0
 40
0.0
 40
0.0
 40
0.0
 40
0.2646136112207748
 40
0.5349657611112477
 40
0.7653524222209274
 40
1.0
 40
1.0
 40
1.0
 40
1.0
 10
195.7764023344292
 20
66.08991040157177
 30
0.0
 10
195.525844302513
 20
66.08991040157085
 30
0.0
 10
195.0192945160974
 20
66.08991040156894
 30
0.0
 10
194.2687897452283
 20
66.08991040156992
 30
0.0
 10
193.5513761642259
 20
66.08991040156889
 30
0.0
 10
193.1115693032687
 20
66.08991040157106
 30
0.0
 10
192.8896509884778
 20
66.08991040157214
 30
0.0
  0
ARC
  5
262
330
1F
100
AcDbEntity
  8
0
  6
Continuous
 62
     7
370
    25
100
AcDbCircle
 10
194.3330266615
 20
63.5899104016
 30
0.0
 40
2.886751345951342
100
AcDbArc
 50
60.0
 51
120.0
  0
ARC
  5
263
330
1F
100
AcDbEntity
  8
0
  6
Continuous
 62
     7
370
    25
100
AcDbCircle
 10
194.3330266615
 20
63.5899104016
 30
0.0
 40
2.886751345951342
100
AcDbArc
 50
120.0
 51
180.0
  0
SPLINE
  5
264
330
1F
100
AcDbEntity
  8
0
  6
Continuous
 62
     7
370
    25
100
AcDbSpline
210
0.0
220
0.0
230
1.0
 70
    24
 71
     3
 72
    11
 73
     7
 74
     0
 42
0.000000001
 43
0.00000001
 40
0.0
 40
0.0
 40
0.0
 40
0.0
 40
0.2646136112207486
 40
0.5349657611108334
 40
0.7653524222207732
 40
0.9999999999999999
 40
0.9999999999999999
 40
0.9999999999999999
 40
0.9999999999999999
 10
192.8896509884778
 20
66.08991040157214
 30
0.0
 10
192.7643719725209
 20
65.87292078080992
 30
0.0
 10
192.5110970793155
 20
65.43423579749143
 30
0.0
 10
192.1358446938802
 20
64.7842796002586
 30
0.0
 10
191.77713790338
 20
64.1629812140903
 30
0.0
 10
191.5572344728996
 20
63.78209729974317
 30
0.0
 10
191.4462753155032
 20
63.58991040156958
 30
0.0
  0
ARC
  5
265
330
1F
100
AcDbEntity
  8
0
  6
Continuous
 62
     7
370
    25
100
AcDbCircle
 10
194.3330266615
 20
63.5899104016
 30
0.0
 40
2.886751345950794
100
AcDbArc
 50
180.0
 51
240.0
  0
SPLINE
  5
266
330
1F
100
AcDbEntity
  8
0
  6
Continuous
 62
     7
370
    25
100
AcDbSpline
210
0.0
220
0.0
230
1.0
 70
    24
 71
     3
 72
    11
 73
     7
 74
     0
 42
0.000000001
 43
0.00000001
 40
0.0
 40
0.0
 40
0.0
 40
0.0
 40
0.2646136112205877
 40
0.5349657611107413
 40
0.7653524222207582
 40
1.0
 40
1.0
 40
1.0
 40
1.0
 10
191.4462753155032
 20
63.58991040156958
 30
0.0
 10
191.571554331462
 20
63.37292078080857
 30
0.0
 10
191.8248292246713
 20
62.93423579749234
 30
0.0
 10
192.2000816101046
 20
62.28427960025842
 30
0.0
 10
192.5587884006066
 20
61.66298121409096
 30
0.0
 10
192.7786918310838
 20
61.28209729974184
 30
0.0
 10
192.8896509884785
 20
61.08991040156728
 30
0.0
  0
ARC
  5
267
330
1F
100
AcDbEntity
  8
0
  6
Continuous
 62
     7
370
    25
100
AcDbCircle
 10
194.3330266615
 20
63.5899104016
 30
0.0
 40
2.886751345950794
100
AcDbArc
 50
300.0
 51
0.0
  0
SPLINE
  5
268
330
1F
100
AcDbEntity
  8
0
  6
Continuous
 62
     7
370
    25
100
AcDbSpline
210
0.0
220
0.0
230
1.0
 70
    24
 71
     3
 72
    11
 73
     7
 74
     0
 42
0.000000001
 43
0.00000001
 40
0.0
 40
0.0
 40
0.0
 40
0.0
 40
0.2646136112205253
 40
0.5349657611106717
 40
0.7653524222206894
 40
1.0
 40
1.0
 40
1.0
 40
1.0
 10
195.7764023344293
 20
61.08991040156728
 30
0.0
 10
195.9016813503864
 20
61.3069000223292
 30
0.0
 10
196.1549562435922
 20
61.74558500564731
 30
0.0
 10
196.5302086290273
 20
62.39554120288018
 30
0.0
 10
196.8889154195276
 20
63.01683958904867
 30
0.0
 10
197.1088188500082
 20
63.39772350339592
 30
0.0
 10
197.2197780074045
 20
63.58991040156958
 30
0.0
  0
ARC
  5
269
330
1F
100
AcDbEntity
  8
0
  6
Continuous
 62
     7
370
    25
100
AcDbCircle
 10
194.3330266615
 20
63.5899104016
 30
0.0
 40
2.886751345950652
100
AcDbArc
 50
0.0
 51
60.0
  0
SPLINE
  5
26A
330
1F
100
AcDbEntity
  8
0
  6
Continuous
 62
     7
370
    25
100
AcDbSpline
210
0.0
220
0.0
230
1.0
 70
    24
 71
     3
 72
    11
 73
     7
 74
     0
 42
0.000000001
 43
0.00000001
 40
0.0
 40
0.0
 40
0.0
 40
0.0
 40
0.2646136112205965
 40
0.5349657611107564
 40
0.7653524222207317
 40
1.0
 40
1.0
 40
1.0
 40
1.0
 10
197.2197780074045
 20
63.58991040156958
 30
0.0
 10
197.0944989914457
 20
63.80690002233061
 30
0.0
 10
196.8412240982365
 20
64.24558500564682
 30
0.0
 10
196.4659717128031
 20
64.89554120288072
 30
0.0
 10
196.1072649223012
 20
65.51683958904816
 30
0.0
 10
195.8873614918239
 20
65.89772350339722
 30
0.0
 10
195.7764023344292
 20
66.08991040157177
 30
0.0
  0
ARC
  5
26B
330
1F
100
AcDbEntity
  8
0
  6
Continuous
 62
     7
370
    25
100
AcDbCircle
 10
194.3330266615
 20
63.5899104016
 30
0.0
 40
2.886751345950794
100
AcDbArc
 50
240.0
 51
300.0
  0
SPLINE
  5
26C
330
1F
100
AcDbEntity
  8
0
  6
Continuous
 62
     7
370
    25
100
AcDbSpline
210
0.0
220
0.0
230
1.0
 70
    24
 71
     3
 72
    11
 73
     7
 74
     0
 42
0.000000001
 43
0.00000001
 40
0.0
 40
0.0
 40
0.0
 40
0.0
 40
0.2477277751684111
 40
0.4999975647392241
 40
0.747254133266862
 40
1.0
 40
1.0
 40
1.0
 40
1.0
 10
195.7764023344293
 20
61.08991040156728
 30
0.0
 10
195.5419921217494
 20
61.08991040156827
 30
0.0
 10
195.0688738554981
 20
61.08991040157026
 30
0.0
 10
194.3379262661808
 20
61.08991040156925
 30
0.0
 10
193.6020949964448
 20
61.08991040157024
 30
0.0
 10
193.1288641196344
 20
61.08991040156828
 30
0.0
 10
192.8896509884785
 20
61.08991040156728
 30
0.0
  0
ARC
  5
26D
330
1F
100
AcDbEntity
  8
0
  6
Continuous
 62
     7
370
    25
100
AcDbCircle
 10
194.3330266615
 20
63.5899104016
 30
0.0
 40
4.670562499995867
100
AcDbArc
 50
297.2457059962
 51
90.0
  0
ARC
  5
26E
330
1F
100
AcDbEntity
  8
0
  6
Continuous
 62
     7
370
    25
100
AcDbCircle
 10
194.3330266615
 20
63.5899104016
 30
0.0
 40
4.670562499995867
100
AcDbArc
 50
90.0
 51
242.7541781532
  0
LINE
  5
26F
330
1F
100
AcDbEntity
  8
0
  6
Continuous
 62
     7
370
    25
100
AcDbLine
 10
217.8330266615
 20
55.9499104016
 30
0.0
 11
170.8330266615
 21
55.9499104016
 31
0.0
  0
LINE
  5
270
330
1F
100
AcDbEntity
  8
0
  6
Continuous
 62
     7
370
    25
100
AcDbLine
 10
170.8330266615
 20
46.8499104016
 30
0.0
 11
217.8330266615
 21
46.8499104016
 31
0.0
  0
SPLINE
  5
271
330
1F
100
AcDbEntity
  8
0
  6
Continuous
 62
     7
370
    25
100
AcDbSpline
210
0.0
220
0.0
230
1.0
 70
    11
 71
     3
 72
    26
 73
    22
 74
     0
 42
0.000000001
 43
0.00000001
 40
0.0
 40
0.0
 40
0.0
 40
0.0
 40
0.0535561513369564
 40
0.1071075964175285
 40
0.1607811028068022
 40
0.2145347293693776
 40
0.2681560742039643
 40
0.3216398759355037
 40
0.3751939414896346
 40
0.4289171558706853
 40
0.4826455490231747
 40
0.5362054114818061
 40
0.5896865136997195
 40
0.6433010129590293
 40
0.6970531913721616
 40
0.7507328538054157
 40
0.8042436643935382
 40
0.8577519061923965
 40
0.9114272551137041
 40
0.9651805761002844
 40
1.0
 40
1.0
 40
1.0
 40
1.0
 10
192.3330266614536
 20
50.84991040156956
 30
0.0
 10
192.355057282973
 20
51.07435238306969
 30
0.0
 10
192.3991165900669
 20
51.52321662319066
 30
0.0
 10
192.7424824855643
 20
52.12092007920175
 30
0.0
 10
193.2487873001116
 20
52.57638828637057
 30
0.0
 10
193.8822364258813
 20
52.83772465632171
 30
0.0
 10
194.5648899672436
 20
52.87481902489415
 30
0.0
 10
195.220654705348
 20
52.68451069927448
 30
0.0
 10
195.7767989874523
 20
52.28855176168476
 30
0.0
 10
196.1715255434132
 20
51.73012720792204
 30
0.0
 10
196.3591760084939
 20
51.07196537980954
 30
0.0
 10
196.3184690639827
 20
50.38968269494246
 30
0.0
 10
196.0551566599647
 20
49.75996583181162
 30
0.0
 10
195.5984641029292
 20
49.25205974496669
 30
0.0
 10
194.9984886572078
 20
48.92323799281691
 30
0.0
 10
194.3233647189374
 20
48.81172251066461
 30
0.0
 10
193.6507123451128
 20
48.9295123364034
 30
0.0
 10
193.0541582005375
 20
49.26253995284761
 30
0.0
 10
192.6038449418077
 20
49.77402970791496
 30
0.0
 10
192.3664944648893
 20
50.33445324949101
 30
0.0
 10
192.3424707748547
 20
50.70445610526418
 30
0.0
 10
192.3330266614536
 20
50.84991040156956
 30
0.0
  0
LINE
  5
272
330
1F
100
AcDbEntity
  8
0
  6
Continuous
 62
     7
370
    25
100
AcDbLine
 10
171.3330266615
 20
56.4499104016
 30
0.0
 11
217.3330266615
 21
56.4499104016
 31
0.0
  0
SPLINE
  5
273
330
1F
100
AcDbEntity
  8
0
  6
Continuous
 62
     7
370
    25
100
AcDbSpline
210
0.0
220
0.0
230
1.0
 70
    24
 71
     3
 72
    12
 73
     8
 74
     0
 42
0.000000001
 43
0.00000001
 40
0.0
 40
0.0
 40
0.0
 40
0.0
 40
0.0184583684084685
 40
0.321276754160818
 40
0.5237368095198252
 40
0.726571518958757
 40
1.0
 40
1.0
 40
1.0
 40
1.0
 10
196.0033559703026
 20
51.94991040156956
 30
0.0
 10
195.9839023807599
 20
51.94991040156956
 30
0.0
 10
195.6453033254835
 20
51.9499104015695
 30
0.0
 10
195.0862633226487
 20
51.94991040156957
 30
0.0
 10
194.2455107188229
 20
51.94991040156956
 30
0.0
 10
193.4560141221264
 20
51.94991040156956
 30
0.0
 10
192.9520368337738
 20
51.94991040156956
 30
0.0
 10
192.6626973526046
 20
51.94991040156956
 30
0.0
  0
LINE
  5
274
330
1F
100
AcDbEntity
  8
0
  6
Continuous
 62
     7
370
    25
100
AcDbLine
 10
170.8330266615
 20
71.9899104016
 30
0.0
 11
217.8330266615
 21
71.9899104016
 31
0.0
  0
LINE
  5
275
330
1F
100
AcDbEntity
  8
0
  6
Continuous
 62
     7
370
    25
100
AcDbLine
 10
217.3330266615
 20
71.4899104016
 30
0.0
 11
171.3330266615
 21
71.4899104016
 31
0.0
  0
LINE
  5
276
330
1F
100
AcDbEntity
  8
0
  6
Continuous
 62
     7
370
    25
100
AcDbLine
 10
210.9500360193
 20
75.4899104016
 30
0.0
 11
170.8330266615
 21
75.4899104016
 31
0.0
  0
LINE
  5
277
330
1F
100
AcDbEntity
  8
0
  6
Continuous
 62
     7
370
    25
100
AcDbLine
 10
217.8330266615
 20
75.4899104016
 30
0.0
 11
210.9500360193
 21
75.4899104016
 31
0.0
  0
LINE
  5
278
330
1F
100
AcDbEntity
  8
0
  6
Continuous
 62
     7
370
    25
100
AcDbLine
 10
210.5964826287
 20
75.9899104016
 30
0.0
 11
217.3330266615
 21
75.9899104016
 31
0.0
  0
LINE
  5
279
330
1F
100
AcDbEntity
  8
0
  6
Continuous
 62
     7
370
    25
100
AcDbLine
 10
171.3330266615
 20
75.9899104016
 30
0.0
 11
210.5964826287
 21
75.9899104016
 31
0.0
  0
LINE
  5
27A
330
1F
100
AcDbEntity
  8
0
  6
Continuous
 62
     7
370
    25
100
AcDbLine
 10
173.531139869
 20
36.9494001444
 30
0.0
 11
218.8330266615
 21
36.9494001444
 31
0.0
  0
SPLINE
  5
27B
330
1F
100
AcDbEntity
  8
0
  6
Continuous
 62
     7
370
    25
100
AcDbSpline
210
0.0
220
0.0
230
1.0
 70
     8
 71
     3
 72
    10
 73
     6
 74
     0
 42
0.000000001
 43
0.00000001
 40
0.0
 40
0.0
 40
0.0
 40
0.0
 40
0.5
 40
0.5
 40
1.0
 40
1.0
 40
1.0
 40
1.0
 10
172.7677742391708
 20
36.99940319198873
 30
0.0
 10
172.8882861384912
 20
37.00270310903333
 30
0.0
 10
173.0121603845456
 20
36.98907920131898
 30
0.0
 10
173.2666174948012
 20
36.9617111823702
 30
0.0
 10
173.3972008674681
 20
36.94940014435274
 30
0.0
 10
173.5311398690008
 20
36.94940014435274
 30
0.0
  0
LINE
  5
27C
330
1F
100
AcDbEntity
  8
0
  6
Continuous
 62
     7
370
    25
100
AcDbLine
 10
194.3330266615
 20
45.4499104016
 30
0.0
 11
169.8330266615
 21
45.4499104016
 31
0.0
  0
LINE
  5
27D
330
1F
100
AcDbEntity
  8
0
  6
Continuous
 62
     7
370
    25
100
AcDbLine
 10
218.8330266615
 20
45.4499104016
 30
0.0
 11
194.3330266615
 21
45.4499104016
 31
0.0
  0
LINE
  5
27E
330
1F
100
AcDbEntity
  8
0
  6
Continuous
 62
     7
370
    25
100
AcDbLine
 10
194.3330266615
 20
45.9499104016
 30
0.0
 11
218.3330266615
 21
45.9499104016
 31
0.0
  0
LINE
  5
27F
330
1F
100
AcDbEntity
  8
0
  6
Continuous
 62
     7
370
    25
100
AcDbLine
 10
170.3330266615
 20
45.9499104016
 30
0.0
 11
194.3330266615
 21
45.9499104016
 31
0.0
  0
LINE
  5
280
330
1F
100
AcDbEntity
  8
0
  6
Continuous
 62
     7
370
    25
100
AcDbLine
 10
215.8330266615
 20
28.2499104016
 30
0.0
 11
176.0783096803
 21
28.2499104016
 31
0.0
  0
SPLINE
  5
281
330
1F
100
AcDbEntity
  8
0
  6
Continuous
 62
     7
370
    25
100
AcDbSpline
210
0.0
220
0.0
230
1.0
 70
     8
 71
     3
 72
    10
 73
     6
 74
     0
 42
0.000000001
 43
0.00000001
 40
0.0
 40
0.0
 40
0.0
 40
0.0
 40
0.5
 40
0.5
 40
1.0
 40
1.0
 40
1.0
 40
1.0
 10
171.8330266614536
 20
36.74322861393429
 30
0.0
 10
172.0139240799337
 20
36.82882099922794
 30
0.0
 10
172.1837228016356
 20
36.89059661666254
 30
0.0
 10
172.4974208687989
 20
36.9743817600596
 30
0.0
 10
172.6419904000039
 20
36.99595891605292
 30
0.0
 10
172.7677742391709
 20
36.9994031919887
 30
0.0
  0
LINE
  5
282
330
1F
100
AcDbEntity
  8
0
  6
Continuous
 62
     7
370
    25
100
AcDbLine
 10
168.3667023163
 20
44.4499104016
 30
0.0
 11
171.6191373671
 21
44.4499104016
 31
0.0
  0
SPLINE
  5
283
330
1F
100
AcDbEntity
  8
0
  6
Continuous
 62
     7
370
    25
100
AcDbSpline
210
0.0
220
0.0
230
1.0
 70
     8
 71
     3
 72
    12
 73
     8
 74
     0
 42
0.000000001
 43
0.00000001
 40
0.0
 40
0.0
 40
0.0
 40
0.0
 40
0.249999999999999
 40
0.249999999999999
 40
0.499999999999998
 40
0.499999999999998
 40
1.0
 40
1.0
 40
1.0
 40
1.0
 10
171.6191373671365
 20
44.44991040156957
 30
0.0
 10
171.739841197556
 20
44.44991040156957
 30
0.0
 10
171.8535415549758
 20
44.46627919369168
 30
0.0
 10
172.0692506701059
 20
44.51550901915937
 30
0.0
 10
172.1715992687423
 20
44.54894659179657
 30
0.0
 10
172.4589371447178
 20
44.66283739275611
 30
0.0
 10
172.6254150082919
 20
44.75681078998664
 30
0.0
 10
172.7677742391709
 20
44.84991040156956
 30
0.0
  0
SPLINE
  5
284
330
1F
100
AcDbEntity
  8
0
  6
Continuous
 62
     7
370
    25
100
AcDbSpline
210
0.0
220
0.0
230
1.0
 70
     8
 71
     3
 72
    16
 73
    12
 74
     0
 42
0.000000001
 43
0.00000001
 40
0.0
 40
0.0
 40
0.0
 40
0.0
 40
0.2499999999999993
 40
0.2499999999999993
 40
0.4999999999999987
 40
0.4999999999999987
 40
0.749999999999998
 40
0.749999999999998
 40
0.874999999999999
 40
0.874999999999999
 40
1.0
 40
1.0
 40
1.0
 40
1.0
 10
171.8330266614536
 20
36.74322861393429
 30
0.0
 10
171.5769672959063
 20
36.62207303273194
 30
0.0
 10
171.3090388605682
 20
36.4717335446214
 30
0.0
 10
170.7505872458743
 20
36.13418623258419
 30
0.0
 10
170.4583759698791
 20
35.94527958777105
 30
0.0
 10
169.8729553180656
 20
35.55420206058051
 30
0.0
 10
169.5770471184049
 20
35.35031452749602
 30
0.0
 10
169.1268235635011
 20
35.03604147593148
 30
0.0
 10
168.975484206497
 20
34.92970679551851
 30
0.0
 10
168.6712390275759
 20
34.71525122388839
 30
0.0
 10
168.517678745788
 20
34.60666678755244
 30
0.0
 10
168.366702316256
 20
34.49991040156957
 30
0.0
  0
LINE
  5
285
330
1F
100
AcDbEntity
  8
0
  6
Continuous
 62
     7
370
    25
100
AcDbLine
 10
176.0783096803
 20
28.2499104016
 30
0.0
 11
171.8330266615
 21
28.2499104016
 31
0.0
  0
LINE
  5
286
330
1F
100
AcDbEntity
  8
0
  6
Continuous
 62
     7
370
    25
100
AcDbLine
 10
166.3330266615
 20
44.4499104016
 30
0.0
 11
166.3330266615
 21
28.2499104016
 31
0.0
  0
LINE
  5
287
330
1F
100
AcDbEntity
  8
0
  6
Continuous
 62
     7
370
    25
100
AcDbLine
 10
166.3330266615
 20
44.4499104016
 30
0.0
 11
168.3667023163
 21
44.4499104016
 31
0.0
  0
LINE
  5
288
330
1F
100
AcDbEntity
  8
0
  6
Continuous
 62
     7
370
    25
100
AcDbLine
 10
166.3330266615
 20
28.2499104016
 30
0.0
 11
171.8330266615
 21
28.2499104016
 31
0.0
  0
LINE
  5
289
330
1F
100
AcDbEntity
  8
0
  6
Continuous
 62
     7
370
    25
100
AcDbLine
 10
165.3330266615
 20
28.2499104016
 30
0.0
 11
165.3330266615
 21
44.4499104016
 31
0.0
  0
LINE
  5
28A
330
1F
100
AcDbEntity
  8
0
  6
Continuous
 62
     7
370
    25
100
AcDbLine
 10
165.3330266615
 20
44.4499104016
 30
0.0
 11
166.3330266615
 21
44.4499104016
 31
0.0
  0
LINE
  5
28B
330
1F
100
AcDbEntity
  8
0
  6
Continuous
 62
     7
370
    25
100
AcDbLine
 10
166.3330266615
 20
28.2499104016
 30
0.0
 11
165.3330266615
 21
28.2499104016
 31
0.0
  0
LINE
  5
28C
330
1F
100
AcDbEntity
  8
0
  6
Continuous
 62
     7
370
    25
100
AcDbLine
 10
210.3330266615
 20
90.3299104016
 30
0.0
 11
216.3330266615
 21
90.3299104016
 31
0.0
  0
LINE
  5
28D
330
1F
100
AcDbEntity
  8
0
  6
Continuous
 62
     7
370
    25
100
AcDbLine
 10
191.3330266615
 20
90.3299104016
 30
0.0
 11
197.3330266615
 21
90.3299104016
 31
0.0
  0
LINE
  5
28E
330
1F
100
AcDbEntity
  8
0
  6
Continuous
 62
     7
370
    25
100
AcDbLine
 10
227.8330266615
 20
108.0299104016
 30
0.0
 11
229.3330266615
 21
108.0299104016
 31
0.0
  0
LINE
  5
28F
330
1F
100
AcDbEntity
  8
0
  6
Continuous
 62
     7
370
    25
100
AcDbLine
 10
229.3330266615
 20
108.0299104016
 30
0.0
 11
229.3330266615
 21
103.0299104016
 31
0.0
  0
LINE
  5
290
330
1F
100
AcDbEntity
  8
0
  6
Continuous
 62
     7
370
    25
100
AcDbLine
 10
227.8330266615
 20
103.0299104016
 30
0.0
 11
227.8330266615
 21
108.0299104016
 31
0.0
  0
ARC
  5
291
330
1F
100
AcDbEntity
  8
0
  6
Continuous
 62
     7
370
    25
100
AcDbCircle
 10
226.3330266615
 20
86.0299104016
 30
0.0
 40
1.5
100
AcDbArc
 50
270.0
 51
0.0
  0
LINE
  5
292
330
1F
100
AcDbEntity
  8
0
  6
Continuous
 62
     7
370
    25
100
AcDbLine
 10
227.8330266615
 20
86.0299104016
 30
0.0
 11
227.8330266615
 21
103.0299104016
 31
0.0
  0
LINE
  5
293
330
1F
100
AcDbEntity
  8
0
  6
Continuous
 62
     7
370
    25
100
AcDbLine
 10
229.3330266615
 20
86.0299104016
 30
0.0
 11
229.3330266615
 21
103.0299104016
 31
0.0
  0
ARC
  5
294
330
1F
100
AcDbEntity
  8
0
  6
Continuous
 62
     7
370
    25
100
AcDbCircle
 10
226.3330266615
 20
86.0299104016
 30
0.0
 40
3.0
100
AcDbArc
 50
270.0
 51
0.0
  0
LINE
  5
295
330
1F
100
AcDbEntity
  8
0
  6
Continuous
 62
     7
370
    25
100
AcDbLine
 10
210.3330266615
 20
83.0299104016
 30
0.0
 11
226.3330266615
 21
83.0299104016
 31
0.0
  0
LINE
  5
296
330
1F
100
AcDbEntity
  8
0
  6
Continuous
 62
     7
370
    25
100
AcDbLine
 10
210.3330266615
 20
84.5299104016
 30
0.0
 11
226.3330266615
 21
84.5299104016
 31
0.0
  0
LINE
  5
297
330
1F
100
AcDbEntity
  8
0
  6
Continuous
 62
     7
370
    25
100
AcDbLine
 10
200.3330266615
 20
83.0299104016
 30
0.0
 11
200.3330266615
 21
84.5299104016
 31
0.0
  0
LINE
  5
298
330
1F
100
AcDbEntity
  8
0
  6
Continuous
 62
     7
370
    25
100
AcDbLine
 10
210.3330266615
 20
83.0299104016
 30
0.0
 11
202.6769812949
 21
83.0299104016
 31
0.0
  0
LINE
  5
299
330
1F
100
AcDbEntity
  8
0
  6
Continuous
 62
     7
370
    25
100
AcDbLine
 10
200.3330266615
 20
84.5299104016
 30
0.0
 11
210.3330266615
 21
84.5299104016
 31
0.0
  0
LINE
  5
29A
330
1F
100
AcDbEntity
  8
0
  6
Continuous
 62
     7
370
    25
100
AcDbLine
 10
186.3330266615
 20
84.5299104016
 30
0.0
 11
186.3330266615
 21
83.0299104016
 31
0.0
  0
LINE
  5
29B
330
1F
100
AcDbEntity
  8
0
  6
Continuous
 62
     7
370
    25
100
AcDbLine
 10
184.680100189
 20
84.5299104016
 30
0.0
 11
186.3330266615
 21
84.5299104016
 31
0.0
  0
LINE
  5
29C
330
1F
100
AcDbEntity
  8
0
  6
Continuous
 62
     7
370
    25
100
AcDbLine
 10
173.8330266615
 20
83.0299104016
 30
0.0
 11
173.8330266615
 21
84.5299104016
 31
0.0
  0
LINE
  5
29D
330
1F
100
AcDbEntity
  8
0
  6
Continuous
 62
     7
370
    25
100
AcDbLine
 10
173.8330266615
 20
84.5299104016
 30
0.0
 11
177.080100189
 21
84.5299104016
 31
0.0
  0
LINE
  5
29E
330
1F
100
AcDbEntity
  8
0
  6
Continuous
 62
     7
370
    25
100
AcDbLine
 10
187.3330266615
 20
84.5299104016
 30
0.0
 11
186.3330266615
 21
84.5299104016
 31
0.0
  0
LINE
  5
29F
330
1F
100
AcDbEntity
  8
0
  6
Continuous
 62
     7
370
    25
100
AcDbLine
 10
176.8979978189
 20
83.8299104016
 30
0.0
 11
184.8979978189
 21
83.8299104016
 31
0.0
  0
LINE
  5
2A0
330
1F
100
AcDbEntity
  8
0
  6
Continuous
 62
     7
370
    25
100
AcDbLine
 10
211.2830266615
 20
85.3299104016
 30
0.0
 11
217.3330266615
 21
85.3299104016
 31
0.0
  0
LINE
  5
2A1
330
1F
100
AcDbEntity
  8
0
  6
Continuous
 62
     7
370
    25
100
AcDbLine
 10
180.7585398111
 20
84.8299104016
 30
0.0
 11
181.1605290989
 21
84.8299104016
 31
0.0
  0
LINE
  5
2A2
330
1F
100
AcDbEntity
  8
0
  6
Continuous
 62
     7
370
    25
100
AcDbLine
 10
184.3979978189
 20
88.4299104015
 30
0.0
 11
177.3979978189
 21
88.4299104015
 31
0.0
  0
LINE
  5
2A3
330
1F
100
AcDbEntity
  8
0
  6
Continuous
 62
     7
370
    25
100
AcDbLine
 10
177.7979978189
 20
88.8299104016
 30
0.0
 11
183.9979978189
 21
88.8299104016
 31
0.0
  0
LINE
  5
2A4
330
1F
100
AcDbEntity
  8
0
  6
Continuous
 62
     7
370
    25
100
AcDbLine
 10
206.018055504
 20
88.4299104015
 30
0.0
 11
204.268055504
 21
88.4299104015
 31
0.0
  0
LINE
  5
2A5
330
1F
100
AcDbEntity
  8
0
  6
Continuous
 62
     7
370
    25
100
AcDbLine
 10
211.268055504
 20
88.4299104015
 30
0.0
 11
206.018055504
 21
88.4299104015
 31
0.0
  0
LINE
  5
2A6
330
1F
100
AcDbEntity
  8
0
  6
Continuous
 62
     7
370
    25
100
AcDbLine
 10
206.218055504
 20
88.8299104016
 30
0.0
 11
210.868055504
 21
88.8299104016
 31
0.0
  0
LINE
  5
2A7
330
1F
100
AcDbEntity
  8
0
  6
Continuous
 62
     7
370
    25
100
AcDbLine
 10
204.668055504
 20
88.8299104016
 30
0.0
 11
206.218055504
 21
88.8299104016
 31
0.0
  0
LINE
  5
2A8
330
1F
100
AcDbEntity
  8
0
  6
Continuous
 62
     7
370
    25
100
AcDbLine
 10
177.3979978189
 20
88.4299104015
 30
0.0
 11
177.380100189
 21
88.4299104015
 31
0.0
  0
LINE
  5
2A9
330
1F
100
AcDbEntity
  8
0
  6
Continuous
 62
     7
370
    25
100
AcDbLine
 10
177.780100189
 20
88.8299104016
 30
0.0
 11
177.7979978189
 21
88.8299104016
 31
0.0
  0
LINE
  5
2AA
330
1F
100
AcDbEntity
  8
0
  6
Continuous
 62
     7
370
    25
100
AcDbLine
 10
211.3330266615
 20
27.7499104016
 30
0.0
 11
177.3330266615
 21
27.7499104016
 31
0.0
  0
LINE
  5
2AB
330
1F
100
AcDbEntity
  8
0
  6
Continuous
 62
     7
370
    25
100
AcDbLine
 10
211.3330266615
 20
27.7499104016
 30
0.0
 11
211.3330266615
 21
8.7499104016
 31
0.0
  0
LINE
  5
2AC
330
1F
100
AcDbEntity
  8
0
  6
Continuous
 62
     7
370
    25
100
AcDbLine
 10
177.3330266615
 20
8.7499104016
 30
0.0
 11
211.3330266615
 21
8.7499104016
 31
0.0
  0
LINE
  5
2AD
330
1F
100
AcDbEntity
  8
0
  6
Continuous
 62
     7
370
    25
100
AcDbLine
 10
177.3330266615
 20
8.7499104016
 30
0.0
 11
177.3330266615
 21
27.7499104016
 31
0.0
  0
LINE
  5
2AE
330
1F
100
AcDbEntity
  8
0
  6
Continuous
 62
     7
370
    25
100
AcDbLine
 10
211.3330266615
 20
8.7499104016
 30
0.0
 11
211.3330266615
 21
8.2499104016
 31
0.0
  0
LINE
  5
2AF
330
1F
100
AcDbEntity
  8
0
  6
Continuous
 62
     7
370
    25
100
AcDbLine
 10
211.3330266615
 20
8.2499104016
 30
0.0
 11
177.3330266615
 21
8.2499104016
 31
0.0
  0
LINE
  5
2B0
330
1F
100
AcDbEntity
  8
0
  6
Continuous
 62
     7
370
    25
100
AcDbLine
 10
177.3330266615
 20
8.2499104016
 30
0.0
 11
177.3330266615
 21
8.7499104016
 31
0.0
  0
LINE
  5
2B1
330
1F
100
AcDbEntity
  8
0
  6
Continuous
 62
     7
370
    25
100
AcDbLine
 10
211.3330266615
 20
28.2499104016
 30
0.0
 11
211.3330266615
 21
27.7499104016
 31
0.0
  0
LINE
  5
2B2
330
1F
100
AcDbEntity
  8
0
  6
Continuous
 62
     7
370
    25
100
AcDbLine
 10
177.3330266615
 20
27.7499104016
 30
0.0
 11
177.3330266615
 21
28.2499104016
 31
0.0
  0
LINE
  5
2B3
330
1F
100
AcDbEntity
  8
0
  6
Continuous
 62
     7
370
    25
100
AcDbLine
 10
194.3330266615
 20
82.5299104016
 30
0.0
 11
170.8330266615
 21
82.5299104016
 31
0.0
  0
LINE
  5
2B4
330
1F
100
AcDbEntity
  8
0
  6
Continuous
 62
     7
370
    25
100
AcDbLine
 10
217.8330266615
 20
82.5299104016
 30
0.0
 11
194.3330266615
 21
82.5299104016
 31
0.0
  0
LINE
  5
2B5
330
1F
100
AcDbEntity
  8
0
  6
Continuous
 62
     7
370
    25
100
AcDbLine
 10
194.3330266615
 20
77.5299104016
 30
0.0
 11
217.8330266615
 21
77.5299104016
 31
0.0
  0
LINE
  5
2B6
330
1F
100
AcDbEntity
  8
0
  6
Continuous
 62
     7
370
    25
100
AcDbLine
 10
170.8330266615
 20
77.5299104016
 30
0.0
 11
194.3330266615
 21
77.5299104016
 31
0.0
  0
LINE
  5
2B7
330
1F
100
AcDbEntity
  8
0
  6
Continuous
 62
     7
370
    25
100
AcDbLine
 10
194.3330266615
 20
83.0299104016
 30
0.0
 11
202.6769812949
 21
83.0299104016
 31
0.0
  0
LINE
  5
2B8
330
1F
100
AcDbEntity
  8
0
  6
Continuous
 62
     7
370
    25
100
AcDbLine
 10
171.3330266615
 20
83.0299104016
 30
0.0
 11
194.3330266615
 21
83.0299104016
 31
0.0
  0
LINE
  5
2B9
330
1F
100
AcDbEntity
  8
0
  6
Continuous
 62
     7
370
    25
100
AcDbLine
 10
194.3330266615
 20
77.0299104016
 30
0.0
 11
171.3330266615
 21
77.0299104016
 31
0.0
  0
LINE
  5
2BA
330
1F
100
AcDbEntity
  8
0
  6
Continuous
 62
     7
370
    25
100
AcDbLine
 10
217.3330266615
 20
77.0299104016
 30
0.0
 11
194.3330266615
 21
77.0299104016
 31
0.0
  0
LINE
  5
2BB
330
1F
100
AcDbEntity
  8
0
  6
Continuous
 62
     7
370
    25
100
AcDbLine
 10
201.3330266615
 20
88.5299104016
 30
0.0
 11
187.3330266615
 21
88.5299104016
 31
0.0
  0
LINE
  5
2BC
330
1F
100
AcDbEntity
  8
0
  6
Continuous
 62
     7
370
    25
100
AcDbLine
 10
187.8330266615
 20
89.0299104016
 30
0.0
 11
200.8330266615
 21
89.0299104016
 31
0.0
  0
LINE
  5
2BD
330
1F
100
AcDbEntity
  8
0
  6
Continuous
 62
     7
370
    25
100
AcDbLine
 10
217.0830266615
 20
76.6299104016
 30
0.0
 11
171.5830266615
 21
76.6299104016
 31
0.0
  0
LINE
  5
2BE
330
1F
100
AcDbEntity
  8
0
  6
Continuous
 62
     7
370
    25
100
AcDbLine
 10
217.0830266615
 20
57.0899104016
 30
0.0
 11
171.5830266615
 21
57.0899104016
 31
0.0
  0
LINE
  5
2BF
330
1F
100
AcDbEntity
  8
0
  6
Continuous
 62
     7
370
    25
100
AcDbLine
 10
170.8330266615
 20
57.9899104016
 30
0.0
 11
217.8330266615
 21
57.9899104016
 31
0.0
  0
LINE
  5
2C0
330
1F
100
AcDbEntity
  8
0
  6
Continuous
 62
     7
370
    25
100
AcDbLine
 10
217.8330266615
 20
70.9899104016
 30
0.0
 11
170.8330266615
 21
70.9899104016
 31
0.0
  0
SPLINE
  5
2C1
330
1F
100
AcDbEntity
  8
0
  6
Continuous
 62
     7
370
    25
100
AcDbSpline
210
0.0
220
0.0
230
1.0
 70
    11
 71
     3
 72
    39
 73
    35
 74
     0
 42
0.000000001
 43
0.00000001
 40
0.0
 40
0.0
 40
0.0
 40
0.0
 40
0.0312690909483783
 40
0.0622772996256168
 40
0.0933017920339341
 40
0.1242805285169861
 40
0.1551714145150127
 40
0.1862627872843838
 40
0.2172738722224611
 40
0.2485288214265388
 40
0.2798313034261543
 40
0.3111934813999049
 40
0.3427450233305655
 40
0.3741652080083465
 40
0.4057749942473671
 40
0.4372133774442756
 40
0.4687360957823532
 40
0.5001299642214445
 40
0.5312655089450359
 40
0.5623563370151715
 40
0.5933999887433467
 40
0.6242704196101789
 40
0.6553164259149605
 40
0.686247480729965
 40
0.7173947173646841
 40
0.7486141061547623
 40
0.7798644057325478
 40
0.8113524193186387
 40
0.8427264363826493
 40
0.8743331994187735
 40
0.9058176760890629
 40
0.9373091899082914
 40
0.9687842712272376
 40
1.0
 40
1.0
 40
1.0
 40
1.0
 10
197.8840547225288
 20
67.0322488925279
 30
0.0
 10
198.0993673292274
 20
66.79091543607312
 30
0.0
 10
198.5281961603142
 20
66.31026200095623
 30
0.0
 10
198.9772789946194
 20
65.44713028779753
 30
0.0
 10
199.2584326794459
 20
64.5208902892878
 30
0.0
 10
199.3475305217633
 20
63.55466241580108
 30
0.0
 10
199.2439513865961
 20
62.58995436309441
 30
0.0
 10
198.9515513064312
 20
61.66607896748589
 30
0.0
 10
198.4824041871254
 20
60.81684981302953
 30
0.0
 10
197.8558778309316
 20
60.07522890656183
 30
0.0
 10
197.0941778591321
 20
59.46734076916156
 30
0.0
 10
196.2250716890709
 20
59.01601615586817
 30
0.0
 10
195.2816623036659
 20
58.74009159016963
 30
0.0
 10
194.29867140798
 20
58.65096152049999
 30
0.0
 10
193.3180831914822
 20
58.7530508368034
 30
0.0
 10
192.3763593019287
 20
59.0424148337933
 30
0.0
 10
191.5123446884698
 20
59.50630100185757
 30
0.0
 10
190.7585906611847
 20
60.12613818606466
 30
0.0
 10
190.1426796181238
 20
60.87730213306702
 30
0.0
 10
189.6863889972529
 20
61.73274382681561
 30
0.0
 10
189.4078001026392
 20
62.66111397092115
 30
0.0
 10
189.3183769934245
 20
63.62745094798233
 30
0.0
 10
189.4224065320434
 20
64.59116937965403
 30
0.0
 10
189.715534910197
 20
65.51609033279628
 30
0.0
 10
190.1847098961524
 20
66.36469210672269
 30
0.0
 10
190.8120280882743
 20
67.10626362362672
 30
0.0
 10
191.5742412504446
 20
67.71410844964235
 30
0.0
 10
192.4427173885985
 20
68.16443774944639
 30
0.0
 10
193.3875435519584
 20
68.44036120819484
 30
0.0
 10
194.3693257507151
 20
68.52879101664134
 30
0.0
 10
195.3515105805798
 20
68.42649605092646
 30
0.0
 10
196.2898846733085
 20
68.13502919940856
 30
0.0
 10
197.159756347519
 20
67.6792835800955
 30
0.0
 10
197.6432887237149
 20
67.24733145821408
 30
0.0
 10
197.8840547225288
 20
67.0322488925279
 30
0.0
  0
LINE
  5
2C2
330
1F
100
AcDbEntity
  8
0
  6
Continuous
 62
     7
370
    25
100
AcDbLine
 10
217.3330266615
 20
57.4899104016
 30
0.0
 11
171.3330266615
 21
57.4899104016
 31
0.0
  0
LINE
  5
2C3
330
1F
100
AcDbEntity
  8
0
  6
Continuous
 62
     7
370
    25
100
AcDbLine
 10
177.8330266615
 20
57.2899104016
 30
0.0
 11
178.8979978189
 21
57.2899104016
 31
0.0
  0
LINE
  5
2C4
330
1F
100
AcDbEntity
  8
0
  6
Continuous
 62
     7
370
    25
100
AcDbLine
 10
182.8979978189
 20
57.2899104016
 30
0.0
 11
205.768055504
 21
57.2899104016
 31
0.0
  0
LINE
  5
2C5
330
1F
100
AcDbEntity
  8
0
  6
Continuous
 62
     7
370
    25
100
AcDbLine
 10
209.768055504
 20
57.2899104016
 30
0.0
 11
210.8330266615
 21
57.2899104016
 31
0.0
  0
LINE
  5
2C6
330
1F
100
AcDbEntity
  8
0
  6
Continuous
 62
     7
370
    25
100
AcDbLine
 10
217.1330266615
 20
86.3299104016
 30
0.0
 11
211.268055504
 21
86.3299104016
 31
0.0
  0
LINE
  5
2C7
330
1F
100
AcDbEntity
  8
0
  6
Continuous
 62
     7
370
    25
100
AcDbLine
 10
180.7585398111
 20
84.8299104016
 30
0.0
 11
177.0979978189
 21
84.8299104016
 31
0.0
  0
LINE
  5
2C8
330
1F
100
AcDbEntity
  8
0
  6
Continuous
 62
     7
370
    25
100
AcDbLine
 10
184.6979978189
 20
84.8299104016
 30
0.0
 11
181.1605290989
 21
84.8299104016
 31
0.0
  0
ELLIPSE
  5
2C9
330
1F
100
AcDbEntity
  8
0
  6
Continuous
 62
     7
370
    25
100
AcDbEllipse
 10
180.8979978189
 20
83.2309194338
 30
0.0
 11
-3.779687006920882
 21
10.43944757740674
 31
0.0
210
0.0
220
0.0
230
1.0
 40
0.0375867763
 41
4.756185080575934
 42
4.852540343151126
  0
ELLIPSE
  5
2CA
330
1F
100
AcDbEntity
  8
0
  6
Continuous
 62
     7
370
    25
100
AcDbEllipse
 10
180.8979978189
 20
84.3299104016
 30
0.0
 11
-3.779687006920851
 21
10.43944757740654
 31
0.0
210
0.0
220
0.0
230
1.0
 40
0.0375867763
 41
4.650872076216698
 42
4.746690367674328
  0
ELLIPSE
  5
2CB
330
1F
100
AcDbEntity
  8
0
  6
Continuous
 62
     7
370
    25
100
AcDbEllipse
 10
180.8979978189
 20
84.3299104016
 30
0.0
 11
-2.039041674786262
 21
5.631807245706185
 31
0.0
210
0.0
220
0.0
230
1.0
 40
0.0375867763
 41
4.609890979640735
 42
4.787671464250288
  0
LINE
  5
2CC
330
1F
100
AcDbEntity
  8
0
  6
Continuous
 62
     7
370
    25
100
AcDbLine
 10
181.1254501067
 20
84.8299104016
 30
0.0
 11
181.1605290989
 21
84.8299104016
 31
0.0
  0
LINE
  5
2CD
330
1F
100
AcDbEntity
  8
0
  6
Continuous
 62
     7
370
    25
100
AcDbLine
 10
211.568055504
 20
84.8299104016
 30
0.0
 11
203.968055504
 21
84.8299104016
 31
0.0
  0
LINE
  5
2CE
330
1F
100
AcDbEntity
  8
0
  6
Continuous
 62
     7
370
    25
100
AcDbLine
 10
177.0979978189
 20
84.8299104016
 30
0.0
 11
177.080100189
 21
84.8299104016
 31
0.0
  0
CIRCLE
  5
2CF
330
1F
100
AcDbEntity
  8
0
  6
Continuous
 62
     7
370
    25
100
AcDbCircle
 10
194.3330266615
 20
19.2499104016
 30
0.0
 40
6.578500000000005
  0
CIRCLE
  5
2D0
330
1F
100
AcDbEntity
  8
0
  6
Continuous
 62
     7
370
    25
100
AcDbCircle
 10
194.3330266615
 20
19.2499104016
 30
0.0
 40
5.250000000000013
  0
CIRCLE
  5
2D1
330
1F
100
AcDbEntity
  8
0
  6
Continuous
 62
     7
370
    25
100
AcDbCircle
 10
194.3330266615
 20
19.2499104016
 30
0.0
 40
4.250000000000007
  0
CIRCLE
  5
2D2
330
1F
100
AcDbEntity
  8
0
  6
Continuous
 62
     7
370
    25
100
AcDbCircle
 10
194.3330266615
 20
19.2499104016
 30
0.0
 40
2.500000000000011
  0
ARC
  5
2D3
330
1F
100
AcDbEntity
  8
0
  6
Continuous
 62
     7
370
    25
100
AcDbCircle
 10
194.3330266615
 20
19.2499104016
 30
0.0
 40
7.000000000000033
100
AcDbArc
 50
1.6319469671
 51
61.6319469671
  0
ARC
  5
2D4
330
1F
100
AcDbEntity
  8
0
  6
Continuous
 62
     7
370
    25
100
AcDbCircle
 10
194.3330266615
 20
19.2499104016
 30
0.0
 40
7.000000000000033
100
AcDbArc
 50
301.6319469671
 51
1.6319469671
  0
ARC
  5
2D5
330
1F
100
AcDbEntity
  8
0
  6
Continuous
 62
     7
370
    25
100
AcDbCircle
 10
194.3330266615
 20
19.2499104016
 30
0.0
 40
7.000000000000023
100
AcDbArc
 50
241.6319469671
 51
301.6319469671
  0
ARC
  5
2D6
330
1F
100
AcDbEntity
  8
0
  6
Continuous
 62
     7
370
    25
100
AcDbCircle
 10
194.3330266615
 20
19.2499104016
 30
0.0
 40
6.999999999999991
100
AcDbArc
 50
181.6319469671
 51
241.6319469671
  0
ARC
  5
2D7
330
1F
100
AcDbEntity
  8
0
  6
Continuous
 62
     7
370
    25
100
AcDbCircle
 10
194.3330266615
 20
19.2499104016
 30
0.0
 40
6.999999999999992
100
AcDbArc
 50
121.6319469671
 51
181.6319469671
  0
ARC
  5
2D8
330
1F
100
AcDbEntity
  8
0
  6
Continuous
 62
     7
370
    25
100
AcDbCircle
 10
194.3330266615
 20
19.2499104016
 30
0.0
 40
7.000000000000004
100
AcDbArc
 50
61.6319469671
 51
121.6319469671
  0
SPLINE
  5
2D9
330
1F
100
AcDbEntity
  8
0
  6
Continuous
 62
     7
370
    25
100
AcDbSpline
210
0.0
220
0.0
230
1.0
 70
    24
 71
     3
 72
    10
 73
     6
 74
     0
 42
0.000000001
 43
0.00000001
 40
0.0
 40
0.0
 40
0.0
 40
0.0
 40
0.2538172255998956
 40
0.6254155652320255
 40
1.0
 40
1.0
 40
1.0
 40
1.0
 10
201.3301873992478
 20
19.44926337864467
 30
0.0
 10
201.3382871447729
 20
19.16496754215288
 30
0.0
 10
201.3582452343545
 20
18.46445148831771
 30
0.0
 10
201.3900096177915
 20
17.34954214556891
 30
0.0
 10
201.413245211883
 20
16.53398780029846
 30
0.0
 10
201.4249095013545
 20
16.12457877354721
 30
0.0
  0
ARC
  5
2DA
330
1F
100
AcDbEntity
  8
0
  6
Continuous
 62
     7
370
    25
100
AcDbCircle
 10
194.3330266615
 20
19.2499104016
 30
0.0
 40
7.750000000000219
100
AcDbArc
 50
327.0465678823
 51
336.217326052
  0
SPLINE
  5
2DB
330
1F
100
AcDbEntity
  8
0
  6
Continuous
 62
     7
370
    25
100
AcDbSpline
210
0.0
220
0.0
230
1.0
 70
    24
 71
     3
 72
    10
 73
     6
 74
     0
 42
0.000000001
 43
0.00000001
 40
0.0
 40
0.0
 40
0.0
 40
0.0
 40
0.2372861409041382
 40
0.6168892495779037
 40
1.0
 40
1.0
 40
1.0
 40
1.0
 10
200.8361520493503
 20
15.03424198608736
 30
0.0
 10
200.6156897242222
 20
14.89844315094377
 30
0.0
 10
200.0425385161901
 20
14.54539749397417
 30
0.0
 10
199.0976811201771
 20
13.96339086911971
 30
0.0
 10
198.3698439710658
 20
13.5150628522302
 30
0.0
 10
198.0042517728178
 20
13.28986793681407
 30
0.0
  0
SPLINE
  5
2DC
330
1F
100
AcDbEntity
  8
0
  6
Continuous
 62
     7
370
    25
100
AcDbSpline
210
0.0
220
0.0
230
1.0
 70
    24
 71
     3
 72
    13
 73
     9
 74
     0
 42
0.000000001
 43
0.00000001
 40
0.0
 40
0.0
 40
0.0
 40
0.0
 40
0.1268230747973235
 40
0.253801247864508
 40
0.4394007242008282
 40
0.6254231095520121
 40
0.8125599864038192
 40
1.0
 40
1.0
 40
1.0
 40
1.0
 10
197.6589622878833
 20
25.40930584340009
 30
0.0
 10
197.7840389884602
 20
25.34176722562279
 30
0.0
 10
198.0343453521557
 20
25.20660739372063
 30
0.0
 10
198.4671502269434
 20
24.97290245206795
 30
0.0
 10
198.9568770428053
 20
24.70846093674787
 30
0.0
 10
199.5024707657678
 20
24.41385254248344
 30
0.0
 10
200.0462226925882
 20
24.12023867689688
 30
0.0
 10
200.4057003694486
 20
23.92612878028977
 30
0.0
 10
200.5855846665221
 20
23.82899528757569
 30
0.0
  0
ARC
  5
2DD
330
1F
100
AcDbEntity
  8
0
  6
Continuous
 62
     7
370
    25
100
AcDbCircle
 10
194.3330266615
 20
19.2499104016
 30
0.0
 40
7.750000000000035
100
AcDbArc
 50
27.0465678823
 51
36.217326052
  0
SPLINE
  5
2DE
330
1F
100
AcDbEntity
  8
0
  6
Continuous
 62
     7
370
    25
100
AcDbSpline
210
0.0
220
0.0
230
1.0
 70
    24
 71
     3
 72
    11
 73
     7
 74
     0
 42
0.000000001
 43
0.00000001
 40
0.0
 40
0.0
 40
0.0
 40
0.0
 40
0.2478837503188272
 40
0.4964627719235088
 40
0.7476697718984351
 40
1.0
 40
1.0
 40
1.0
 40
1.0
 10
201.2354652971411
 20
22.77394798374213
 30
0.0
 10
201.2431708363536
 20
22.5034885342157
 30
0.0
 10
201.2586035274908
 20
21.96181104292354
 30
0.0
 10
201.2821685370374
 20
21.13469442793831
 30
0.0
 10
201.3060579105637
 20
20.29619284677008
 30
0.0
 10
201.3221322841163
 20
19.73199271714351
 30
0.0
 10
201.3301873992478
 20
19.44926337864467
 30
0.0
  0
SPLINE
  5
2DF
330
1F
100
AcDbEntity
  8
0
  6
Continuous
 62
     7
370
    25
100
AcDbSpline
210
0.0
220
0.0
230
1.0
 70
    24
 71
     3
 72
    10
 73
     6
 74
     0
 42
0.000000001
 43
0.00000001
 40
0.0
 40
0.0
 40
0.0
 40
0.0
 40
0.37945239584459
 40
0.7627140330548207
 40
1.0
 40
1.0
 40
1.0
 40
1.0
 10
190.6618015500889
 20
25.20995286632482
 30
0.0
 10
191.0238996316263
 20
25.43299550026206
 30
0.0
 10
191.7517308198207
 20
25.88131984538787
 30
0.0
 10
192.6966898318178
 20
26.4633890629427
 30
0.0
 10
193.2732397600562
 20
26.81852823972223
 30
0.0
 10
193.4937018266214
 20
26.9543269155981
 30
0.0
  0
ARC
  5
2E0
330
1F
100
AcDbEntity
  8
0
  6
Continuous
 62
     7
370
    25
100
AcDbCircle
 10
194.3330266615
 20
19.2499104016
 30
0.0
 40
7.750000000000193
100
AcDbArc
 50
87.0465678823
 51
96.217326052
  0
SPLINE
  5
2E1
330
1F
100
AcDbEntity
  8
0
  6
Continuous
 62
     7
370
    25
100
AcDbSpline
210
0.0
220
0.0
230
1.0
 70
    24
 71
     3
 72
     9
 73
     5
 74
     0
 42
0.000000001
 43
0.00000001
 40
0.0
 40
0.0
 40
0.0
 40
0.0
 40
0.4965134544262717
 40
1.0
 40
1.0
 40
1.0
 40
1.0
 10
194.7323399092445
 20
26.98961639922456
 30
0.0
 10
195.2108641256507
 20
26.73122403677837
 30
0.0
 10
196.1746330067159
 20
26.21081042030395
 30
0.0
 10
197.161891113905
 20
25.67771314765891
 30
0.0
 10
197.6589622878833
 20
25.40930584340009
 30
0.0
  0
ARC
  5
2E2
330
1F
100
AcDbEntity
  8
0
  6
Continuous
 62
     7
370
    25
100
AcDbCircle
 10
194.3330266615
 20
19.2499104016
 30
0.0
 40
7.750000000000002
100
AcDbArc
 50
267.0465678823
 51
276.217326052
  0
SPLINE
  5
2E3
330
1F
100
AcDbEntity
  8
0
  6
Continuous
 62
     7
370
    25
100
AcDbSpline
210
0.0
220
0.0
230
1.0
 70
    24
 71
     3
 72
     9
 73
     5
 74
     0
 42
0.000000001
 43
0.00000001
 40
0.0
 40
0.0
 40
0.0
 40
0.0
 40
0.4965134544262729
 40
0.9999999999999999
 40
0.9999999999999999
 40
0.9999999999999999
 40
0.9999999999999999
 10
193.9337134136622
 20
11.51020440391433
 30
0.0
 10
193.455189197256
 20
11.76859676636052
 30
0.0
 10
192.4914203161908
 20
12.28901038283494
 30
0.0
 10
191.5041622090017
 20
12.82210765547997
 30
0.0
 10
191.0070910350234
 20
13.09051495973879
 30
0.0
  0
SPLINE
  5
2E4
330
1F
100
AcDbEntity
  8
0
  6
Continuous
 62
     7
370
    25
100
AcDbSpline
210
0.0
220
0.0
230
1.0
 70
    24
 71
     3
 72
     9
 73
     5
 74
     0
 42
0.000000001
 43
0.00000001
 40
0.0
 40
0.0
 40
0.0
 40
0.0
 40
0.4436555282908412
 40
1.0
 40
1.0
 40
1.0
 40
1.0
 10
198.0042517728178
 20
13.28986793681407
 30
0.0
 10
197.5804815903565
 20
13.02883695515592
 30
0.0
 10
196.6253031795434
 20
12.44047286406982
 30
0.0
 10
195.6917362798826
 20
11.8654208798867
 30
0.0
 10
195.1723514962857
 20
11.54549388754104
 30
0.0
  0
SPLINE
  5
2E5
330
1F
100
AcDbEntity
  8
0
  6
Continuous
 62
     7
370
    25
100
AcDbSpline
210
0.0
220
0.0
230
1.0
 70
    24
 71
     3
 72
    10
 73
     6
 74
     0
 42
0.000000001
 43
0.00000001
 40
0.0
 40
0.0
 40
0.0
 40
0.0
 40
0.2538172255998937
 40
0.6254155652320271
 40
1.0
 40
1.0
 40
1.0
 40
1.0
 10
187.335865923659
 20
19.05055742449422
 30
0.0
 10
187.3277661781338
 20
19.33485326098602
 30
0.0
 10
187.3078080885523
 20
20.03536931482117
 30
0.0
 10
187.2760437051153
 20
21.15027865756998
 30
0.0
 10
187.2528081110238
 20
21.96583300284043
 30
0.0
 10
187.2411438215522
 20
22.37524202959167
 30
0.0
  0
ARC
  5
2E6
330
1F
100
AcDbEntity
  8
0
  6
Continuous
 62
     7
370
    25
100
AcDbCircle
 10
194.3330266615
 20
19.2499104016
 30
0.0
 40
7.749999999999992
100
AcDbArc
 50
147.0465678823
 51
156.217326052
  0
SPLINE
  5
2E7
330
1F
100
AcDbEntity
  8
0
  6
Continuous
 62
     7
370
    25
100
AcDbSpline
210
0.0
220
0.0
230
1.0
 70
    24
 71
     3
 72
     9
 73
     5
 74
     0
 42
0.000000001
 43
0.00000001
 40
0.0
 40
0.0
 40
0.0
 40
0.0
 40
0.5563444717091591
 40
1.0
 40
1.0
 40
1.0
 40
1.0
 10
187.8299012735568
 20
23.46557881705177
 30
0.0
 10
188.3492860571537
 20
23.78550580939743
 30
0.0
 10
189.2828529568145
 20
24.36055779358055
 30
0.0
 10
190.2380313676276
 20
24.94892188466665
 30
0.0
 10
190.6618015500889
 20
25.20995286632482
 30
0.0
  0
ARC
  5
2E8
330
1F
100
AcDbEntity
  8
0
  6
Continuous
 62
     7
370
    25
100
AcDbCircle
 10
194.3330266615
 20
19.2499104016
 30
0.0
 40
7.749999999999986
100
AcDbArc
 50
207.0465678823
 51
216.217326052
  0
SPLINE
  5
2E9
330
1F
100
AcDbEntity
  8
0
  6
Continuous
 62
     7
370
    25
100
AcDbSpline
210
0.0
220
0.0
230
1.0
 70
    24
 71
     3
 72
     9
 73
     5
 74
     0
 42
0.000000001
 43
0.00000001
 40
0.0
 40
0.0
 40
0.0
 40
0.0
 40
0.4965134544262713
 40
1.0
 40
1.0
 40
1.0
 40
1.0
 10
187.4305880257656
 20
15.72587281939677
 30
0.0
 10
187.4151002675848
 20
16.26948312835368
 30
0.0
 10
187.3839072393944
 20
17.36433827097024
 30
0.0
 10
187.3519539665987
 20
18.48587750821065
 30
0.0
 10
187.335865923659
 20
19.05055742449422
 30
0.0
  0
SPLINE
  5
2EA
330
1F
100
AcDbEntity
  8
0
  6
Continuous
 62
     7
370
    25
100
AcDbSpline
210
0.0
220
0.0
230
1.0
 70
    24
 71
     3
 72
    10
 73
     6
 74
     0
 42
0.000000001
 43
0.00000001
 40
0.0
 40
0.0
 40
0.0
 40
0.0
 40
0.2538172255998949
 40
0.6254155652320272
 40
1.0
 40
1.0
 40
1.0
 40
1.0
 10
191.0070910350234
 20
13.09051495973879
 30
0.0
 10
190.7568337456688
 20
13.2256482925957
 30
0.0
 10
190.140190002498
 20
13.55862210692467
 30
0.0
 10
189.1587679970424
 20
14.08856801530706
 30
0.0
 10
188.4408594188256
 20
14.47622257318701
 30
0.0
 10
188.0804686563846
 20
14.6708255155632
 30
0.0
  0
SPLINE
  5
2EB
330
1F
100
AcDbEntity
  8
0
  6
Continuous
 62
     7
370
    25
100
AcDbSpline
210
0.0
220
0.0
230
1.0
 70
     8
 71
     3
 72
    10
 73
     6
 74
     0
 42
0.000000001
 43
0.00000001
 40
0.0
 40
0.0
 40
0.0
 40
0.0
 40
0.2538172255998949
 40
0.6254155652320275
 40
1.0
 40
1.0
 40
1.0
 40
1.0
 10
161.6055266614535
 20
32.98450198911377
 30
0.0
 10
161.5993856890091
 20
33.23388660940837
 30
0.0
 10
161.5842540928641
 20
33.84838006190395
 30
0.0
 10
161.4488873766644
 20
34.82637976297358
 30
0.0
 10
161.2648838820426
 20
35.54178493117679
 30
0.0
 10
161.1725139595613
 20
35.90091897950285
 30
0.0
  0
SPLINE
  5
2EC
330
1F
100
AcDbEntity
  8
0
  6
Continuous
 62
     7
370
    25
100
AcDbSpline
210
0.0
220
0.0
230
1.0
 70
     8
 71
     3
 72
     9
 73
     5
 74
     0
 42
0.000000001
 43
0.00000001
 40
0.0
 40
0.0
 40
0.0
 40
0.0
 40
0.4965134544262728
 40
1.0
 40
1.0
 40
1.0
 40
1.0
 10
161.1725139595613
 20
30.0680849987247
 30
0.0
 10
161.2950320561195
 20
30.54494055932791
 30
0.0
 10
161.54178890725
 20
31.50534869399613
 30
0.0
 10
161.5841822059404
 20
32.48916414580198
 30
0.0
 10
161.6055266614535
 20
32.98450198911377
 30
0.0
  0
LINE
  5
2ED
330
1F
100
AcDbEntity
  8
0
  6
Continuous
 62
     7
370
    25
100
AcDbLine
 10
161.1725139596
 20
30.0680849987
 30
0.0
 11
157.0385393633
 21
30.0680849987
 31
0.0
  0
SPLINE
  5
2EE
330
1F
100
AcDbEntity
  8
0
  6
Continuous
 62
     7
370
    25
100
AcDbSpline
210
0.0
220
0.0
230
1.0
 70
     8
 71
     3
 72
    10
 73
     6
 74
     0
 42
0.000000001
 43
0.00000001
 40
0.0
 40
0.0
 40
0.0
 40
0.0
 40
0.2538172255998952
 40
0.6254155652320275
 40
1.0
 40
1.0
 40
1.0
 40
1.0
 10
156.6055266614535
 20
32.98450198911379
 30
0.0
 10
156.6116676338979
 20
32.73511736881917
 30
0.0
 10
156.6267992300428
 20
32.1206239163236
 30
0.0
 10
156.7621659462425
 20
31.14262421525397
 30
0.0
 10
156.9461694408643
 20
30.42721904705077
 30
0.0
 10
157.0385393633457
 20
30.0680849987247
 30
0.0
  0
SPLINE
  5
2EF
330
1F
100
AcDbEntity
  8
0
  6
Continuous
 62
     7
370
    25
100
AcDbSpline
210
0.0
220
0.0
230
1.0
 70
     8
 71
     3
 72
     9
 73
     5
 74
     0
 42
0.000000001
 43
0.00000001
 40
0.0
 40
0.0
 40
0.0
 40
0.0
 40
0.4965134544262736
 40
1.0
 40
1.0
 40
1.0
 40
1.0
 10
157.0385393633457
 20
35.90091897950285
 30
0.0
 10
156.9160212667875
 20
35.42406341889964
 30
0.0
 10
156.669264415657
 20
34.46365528423142
 30
0.0
 10
156.6268711169666
 20
33.47983983242557
 30
0.0
 10
156.6055266614535
 20
32.98450198911379
 30
0.0
  0
LINE
  5
2F0
330
1F
100
AcDbEntity
  8
0
  6
Continuous
 62
     7
370
    25
100
AcDbLine
 10
157.0385393633
 20
35.9009189795
 30
0.0
 11
161.1725139596
 21
35.9009189795
 31
0.0
  0
SPLINE
  5
2F1
330
1F
100
AcDbEntity
  8
0
  6
Continuous
 62
     7
370
    25
100
AcDbSpline
210
0.0
220
0.0
230
1.0
 70
     8
 71
     3
 72
     9
 73
     5
 74
     0
 42
0.000000001
 43
0.00000001
 40
0.0
 40
0.0
 40
0.0
 40
0.0
 40
0.5563444717091593
 40
1.0
 40
1.0
 40
1.0
 40
1.0
 10
161.1725139595613
 20
37.13975808538176
 30
0.0
 10
161.3080196807021
 20
37.66118599390843
 30
0.0
 10
161.5515841053194
 20
38.59842530344048
 30
0.0
 10
161.5889493597565
 20
39.55736113820039
 30
0.0
 10
161.6055266614535
 20
39.98279832256782
 30
0.0
  0
LINE
  5
2F2
330
1F
100
AcDbEntity
  8
0
  6
Continuous
 62
     7
370
    25
100
AcDbLine
 10
161.1725139596
 20
35.9009189795
 30
0.0
 11
161.1725139596
 21
37.1397580854
 31
0.0
  0
LINE
  5
2F3
330
1F
100
AcDbEntity
  8
0
  6
Continuous
 62
     7
370
    25
100
AcDbLine
 10
161.6055266615
 20
39.9827983226
 30
0.0
 11
161.6055266615
 21
32.9845019891
 31
0.0
  0
SPLINE
  5
2F4
330
1F
100
AcDbEntity
  8
0
  6
Continuous
 62
     7
370
    25
100
AcDbSpline
210
0.0
220
0.0
230
1.0
 70
     8
 71
     3
 72
     9
 73
     5
 74
     0
 42
0.000000001
 43
0.00000001
 40
0.0
 40
0.0
 40
0.0
 40
0.0
 40
0.4436555282908411
 40
1.0
 40
1.0
 40
1.0
 40
1.0
 10
156.6055266614535
 20
39.98279832256782
 30
0.0
 10
156.6221039631505
 20
39.55736113820039
 30
0.0
 10
156.6594692175875
 20
38.59842530344049
 30
0.0
 10
156.9030336422048
 20
37.66118599390843
 30
0.0
 10
157.0385393633457
 20
37.13975808538176
 30
0.0
  0
LINE
  5
2F5
330
1F
100
AcDbEntity
  8
0
  6
Continuous
 62
     7
370
    25
100
AcDbLine
 10
157.0385393633
 20
37.1397580854
 30
0.0
 11
157.0385393633
 21
35.9009189795
 31
0.0
  0
LINE
  5
2F6
330
1F
100
AcDbEntity
  8
0
  6
Continuous
 62
     7
370
    25
100
AcDbLine
 10
156.6055266615
 20
39.9827983226
 30
0.0
 11
156.6055266615
 21
32.9845019891
 31
0.0
  0
LINE
  5
2F7
330
1F
100
AcDbEntity
  8
0
  6
Continuous
 62
     7
370
    25
100
AcDbLine
 10
163.7555266615
 20
38.9448303451
 30
0.0
 11
163.7555266615
 21
31.3499104016
 31
0.0
  0
LINE
  5
2F8
330
1F
100
AcDbEntity
  8
0
  6
Continuous
 62
     7
370
    25
100
AcDbLine
 10
163.7555266615
 20
41.3499104016
 30
0.0
 11
163.7555266615
 21
38.9448303451
 31
0.0
  0
LINE
  5
2F9
330
1F
100
AcDbEntity
  8
0
  6
Continuous
 62
     7
370
    25
100
AcDbLine
 10
152.8770266615
 20
39.7640465713
 30
0.0
 11
152.8770266615
 21
29.7714104016
 31
0.0
  0
LINE
  5
2FA
330
1F
100
AcDbEntity
  8
0
  6
Continuous
 62
     7
370
    25
100
AcDbLine
 10
152.8770266615
 20
42.9284104016
 30
0.0
 11
152.8770266615
 21
39.7640465713
 31
0.0
  0
LINE
  5
2FB
330
1F
100
AcDbEntity
  8
0
  6
Continuous
 62
     7
370
    25
100
AcDbLine
 10
154.4555266615
 20
38.9448303451
 30
0.0
 11
154.4555266615
 21
31.3499104016
 31
0.0
  0
LINE
  5
2FC
330
1F
100
AcDbEntity
  8
0
  6
Continuous
 62
     7
370
    25
100
AcDbLine
 10
154.4555266615
 20
41.3499104016
 30
0.0
 11
154.4555266615
 21
38.9448303451
 31
0.0
  0
LINE
  5
2FD
330
1F
100
AcDbEntity
  8
0
  6
Continuous
 62
     7
370
    25
100
AcDbLine
 10
146.9340266615
 20
39.7640465713
 30
0.0
 11
146.9340266615
 21
29.7714104016
 31
0.0
  0
LINE
  5
2FE
330
1F
100
AcDbEntity
  8
0
  6
Continuous
 62
     7
370
    25
100
AcDbLine
 10
146.9340266615
 20
42.9284104016
 30
0.0
 11
146.9340266615
 21
39.7640465713
 31
0.0
  0
LINE
  5
2FF
330
1F
100
AcDbEntity
  8
0
  6
Continuous
 62
     7
370
    25
100
AcDbLine
 10
145.6055266615
 20
39.0745763423
 30
0.0
 11
145.6055266615
 21
31.0999104016
 31
0.0
  0
LINE
  5
300
330
1F
100
AcDbEntity
  8
0
  6
Continuous
 62
     7
370
    25
100
AcDbLine
 10
145.6055266615
 20
41.5999104016
 30
0.0
 11
145.6055266615
 21
39.0745763423
 31
0.0
  0
LINE
  5
301
330
1F
100
AcDbEntity
  8
0
  6
Continuous
 62
     7
370
    25
100
AcDbLine
 10
161.1725139596
 20
37.1397580854
 30
0.0
 11
157.0385393633
 21
37.1397580854
 31
0.0
  0
SPLINE
  5
302
330
1F
100
AcDbEntity
  8
0
  6
Continuous
 62
     7
370
    25
100
AcDbSpline
210
0.0
220
0.0
230
1.0
 70
     8
 71
     3
 72
    10
 73
     6
 74
     0
 42
0.000000001
 43
0.00000001
 40
0.0
 40
0.0
 40
0.0
 40
0.0
 40
0.3794523958446283
 40
0.7627140330549006
 40
1.0
 40
1.0
 40
1.0
 40
1.0
 10
161.6055266614535
 20
39.98279832256782
 30
0.0
 10
161.5922047414348
 20
40.34632080397359
 30
0.0
 10
161.5654271654945
 20
41.07701509115009
 30
0.0
 10
161.390470544563
 20
42.02569132663142
 30
0.0
 10
161.2328030887892
 20
42.60450925264092
 30
0.0
 10
161.1725139595613
 20
42.82583855975389
 30
0.0
  0
SPLINE
  5
303
330
1F
100
AcDbEntity
  8
0
  6
Continuous
 62
     7
370
    25
100
AcDbSpline
210
0.0
220
0.0
230
1.0
 70
     8
 71
     3
 72
    10
 73
     6
 74
     0
 42
0.000000001
 43
0.00000001
 40
0.0
 40
0.0
 40
0.0
 40
0.0
 40
0.2372861409041386
 40
0.6168892495779037
 40
1.0
 40
1.0
 40
1.0
 40
1.0
 10
157.0385393633453
 20
42.82583855975427
 30
0.0
 10
156.9782498749041
 20
42.60450899306122
 30
0.0
 10
156.8215111073545
 20
42.02910315694101
 30
0.0
 10
156.6460984013954
 20
41.08052893717453
 30
0.0
 10
156.6190919746838
 20
40.34982866563247
 30
0.0
 10
156.6055266614535
 20
39.98279832256782
 30
0.0
  0
LINE
  5
304
330
1F
100
AcDbEntity
  8
0
  6
Continuous
 62
     7
370
    25
100
AcDbLine
 10
157.0385393633
 20
42.8258385598
 30
0.0
 11
161.1725139596
 21
42.8258385598
 31
0.0
  0
SPLINE
  5
305
330
1F
100
AcDbEntity
  8
0
  6
Continuous
 62
     7
370
    25
100
AcDbSpline
210
0.0
220
0.0
230
1.0
 70
     8
 71
     3
 72
    10
 73
     6
 74
     0
 42
0.000000001
 43
0.00000001
 40
0.0
 40
0.0
 40
0.0
 40
0.0
 40
0.2538172255998931
 40
0.6254155652320251
 40
1.0
 40
1.0
 40
1.0
 40
1.0
 10
161.6055266614535
 20
29.35161406811526
 30
0.0
 10
161.5993856890091
 20
29.35788855965619
 30
0.0
 10
161.5842540928641
 20
29.37334915207396
 30
0.0
 10
161.4488873766644
 20
29.39795552452841
 30
0.0
 10
161.2648838820426
 20
29.41595504539269
 30
0.0
 10
161.1725139595613
 20
29.42499082131832
 30
0.0
  0
LINE
  5
306
330
1F
100
AcDbEntity
  8
0
  6
Continuous
 62
     7
370
    25
100
AcDbLine
 10
161.1725139596
 20
29.4249908213
 30
0.0
 11
161.1725139596
 21
30.0680849987
 31
0.0
  0
LINE
  5
307
330
1F
100
AcDbEntity
  8
0
  6
Continuous
 62
     7
370
    25
100
AcDbLine
 10
161.6055266615
 20
32.9845019891
 30
0.0
 11
161.6055266615
 21
29.3516140681
 31
0.0
  0
LINE
  5
308
330
1F
100
AcDbEntity
  8
0
  6
Continuous
 62
     7
370
    25
100
AcDbLine
 10
157.0385393633
 20
30.0680849987
 30
0.0
 11
157.0385393633
 21
29.4249908213
 31
0.0
  0
SPLINE
  5
309
330
1F
100
AcDbEntity
  8
0
  6
Continuous
 62
     7
370
    25
100
AcDbSpline
210
0.0
220
0.0
230
1.0
 70
     8
 71
     3
 72
     9
 73
     5
 74
     0
 42
0.000000001
 43
0.00000001
 40
0.0
 40
0.0
 40
0.0
 40
0.0
 40
0.4965134544262714
 40
1.0
 40
1.0
 40
1.0
 40
1.0
 10
157.0385393633457
 20
29.42499082131832
 30
0.0
 10
156.9160212667875
 20
29.41299318418371
 30
0.0
 10
156.6692644156569
 20
29.38882941374072
 30
0.0
 10
156.6268711169666
 20
29.36407671759256
 30
0.0
 10
156.6055266614535
 20
29.3516140681153
 30
0.0
  0
LINE
  5
30A
330
1F
100
AcDbEntity
  8
0
  6
Continuous
 62
     7
370
    25
100
AcDbLine
 10
156.6055266615
 20
29.3516140681
 30
0.0
 11
156.6055266615
 21
32.9845019891
 31
0.0
  0
LINE
  5
30B
330
1F
100
AcDbEntity
  8
0
  6
Continuous
 62
     7
370
    25
100
AcDbLine
 10
161.1725139596
 20
42.8258385598
 30
0.0
 11
161.1725139596
 21
43.4215834882
 31
0.0
  0
SPLINE
  5
30C
330
1F
100
AcDbEntity
  8
0
  6
Continuous
 62
     7
370
    25
100
AcDbSpline
210
0.0
220
0.0
230
1.0
 70
     8
 71
     3
 72
     9
 73
     5
 74
     0
 42
0.000000001
 43
0.00000001
 40
0.0
 40
0.0
 40
0.0
 40
0.0
 40
0.4965134544262716
 40
1.0
 40
1.0
 40
1.0
 40
1.0
 10
161.1725139595613
 20
43.42158348822652
 30
0.0
 10
161.2950320561195
 20
43.40958585109191
 30
0.0
 10
161.54178890725
 20
43.38542208064894
 30
0.0
 10
161.5841822059404
 20
43.36066938450075
 30
0.0
 10
161.6055266614535
 20
43.34820673502347
 30
0.0
  0
LINE
  5
30D
330
1F
100
AcDbEntity
  8
0
  6
Continuous
 62
     7
370
    25
100
AcDbLine
 10
161.6055266615
 20
43.348206735
 30
0.0
 11
161.6055266615
 21
39.9827983226
 31
0.0
  0
SPLINE
  5
30E
330
1F
100
AcDbEntity
  8
0
  6
Continuous
 62
     7
370
    25
100
AcDbSpline
210
0.0
220
0.0
230
1.0
 70
     8
 71
     3
 72
    10
 73
     6
 74
     0
 42
0.000000001
 43
0.00000001
 40
0.0
 40
0.0
 40
0.0
 40
0.0
 40
0.2538172255998956
 40
0.625415565232026
 40
1.0
 40
1.0
 40
1.0
 40
1.0
 10
156.6055266614535
 20
43.34820673502344
 30
0.0
 10
156.6116676338979
 20
43.35448122656437
 30
0.0
 10
156.6267992300428
 20
43.36994181898217
 30
0.0
 10
156.7621659462426
 20
43.39454819143661
 30
0.0
 10
156.9461694408644
 20
43.41254771230089
 30
0.0
 10
157.0385393633457
 20
43.42158348822652
 30
0.0
  0
LINE
  5
30F
330
1F
100
AcDbEntity
  8
0
  6
Continuous
 62
     7
370
    25
100
AcDbLine
 10
157.0385393633
 20
43.4215834882
 30
0.0
 11
157.0385393633
 21
42.8258385598
 31
0.0
  0
LINE
  5
310
330
1F
100
AcDbEntity
  8
0
  6
Continuous
 62
     7
370
    25
100
AcDbLine
 10
156.6055266615
 20
39.9827983226
 30
0.0
 11
156.6055266615
 21
43.348206735
 31
0.0
  0
LINE
  5
311
330
1F
100
AcDbEntity
  8
0
  6
Continuous
 62
     7
370
    25
100
AcDbLine
 10
157.0385393633
 20
29.4249908213
 30
0.0
 11
161.1725139596
 21
29.4249908213
 31
0.0
  0
LINE
  5
312
330
1F
100
AcDbEntity
  8
0
  6
Continuous
 62
     7
370
    25
100
AcDbLine
 10
161.1725139596
 20
43.4215834882
 30
0.0
 11
157.0385393633
 21
43.4215834882
 31
0.0
  0
SPLINE
  5
313
330
1F
100
AcDbEntity
  8
0
  6
Continuous
 62
     7
370
    25
100
AcDbSpline
210
0.0
220
0.0
230
1.0
 70
     8
 71
     3
 72
     9
 73
     5
 74
     0
 42
0.000000001
 43
0.00000001
 40
0.0
 40
0.0
 40
0.0
 40
0.0
 40
0.4965134544262711
 40
0.9999999999999999
 40
0.9999999999999999
 40
0.9999999999999999
 40
0.9999999999999999
 10
161.1725139595613
 20
29.27823731491222
 30
0.0
 10
161.2950320561195
 20
29.29023495204682
 30
0.0
 10
161.54178890725
 20
29.3143987224898
 30
0.0
 10
161.5841822059404
 20
29.33915141863798
 30
0.0
 10
161.6055266614535
 20
29.35161406811526
 30
0.0
  0
LINE
  5
314
330
1F
100
AcDbEntity
  8
0
  6
Continuous
 62
     7
370
    25
100
AcDbLine
 10
161.1725139596
 20
29.2782373149
 30
0.0
 11
157.0385393633
 21
29.2782373149
 31
0.0
  0
SPLINE
  5
315
330
1F
100
AcDbEntity
  8
0
  6
Continuous
 62
     7
370
    25
100
AcDbSpline
210
0.0
220
0.0
230
1.0
 70
     8
 71
     3
 72
    10
 73
     6
 74
     0
 42
0.000000001
 43
0.00000001
 40
0.0
 40
0.0
 40
0.0
 40
0.0
 40
0.2538172255998937
 40
0.6254155652320272
 40
1.0
 40
1.0
 40
1.0
 40
1.0
 10
156.6055266614535
 20
29.3516140681153
 30
0.0
 10
156.6116676338979
 20
29.34533957657436
 30
0.0
 10
156.6267992300428
 20
29.32987898415656
 30
0.0
 10
156.7621659462425
 20
29.30527261170212
 30
0.0
 10
156.9461694408644
 20
29.28727309083784
 30
0.0
 10
157.0385393633457
 20
29.27823731491221
 30
0.0
  0
LINE
  5
316
330
1F
100
AcDbEntity
  8
0
  6
Continuous
 62
     8
370
    18
100
AcDbLine
 10
176.0783096803
 20
34.4999104016
 30
0.0
 11
215.8330266615
 21
34.4999104016
 31
0.0
  0
ARC
  5
317
330
1F
100
AcDbEntity
  8
0
  6
Continuous
 62
     8
370
    18
100
AcDbCircle
 10
173.6436977529
 20
34.6254661687
 30
0.0
 40
2.437847306072834
100
AcDbArc
 50
357.0478054002
 51
72.4156046941
  0
LINE
  5
318
330
1F
100
AcDbEntity
  8
0
  6
Continuous
 62
     8
370
    18
100
AcDbLine
 10
172.7677742392
 20
36.999403192
 30
0.0
 11
172.7677742392
 21
44.8499104016
 31
0.0
  0
LINE
  5
319
330
1F
100
AcDbEntity
  8
0
  6
Continuous
 62
     8
370
    18
100
AcDbLine
 10
169.8330266615
 20
44.8499104016
 30
0.0
 11
172.7677742392
 21
44.8499104016
 31
0.0
  0
LINE
  5
31A
330
1F
100
AcDbEntity
  8
0
  6
Continuous
 62
     8
370
    18
100
AcDbLine
 10
176.0783096803
 20
34.4999104016
 30
0.0
 11
176.0783096803
 21
28.2499104016
 31
0.0
  0
LINE
  5
31B
330
1F
100
AcDbEntity
  8
0
  6
Continuous
 62
     8
370
    18
100
AcDbLine
 10
171.8330266615
 20
34.4999104016
 30
0.0
 11
176.0783096803
 21
34.4999104016
 31
0.0
  0
LINE
  5
31C
330
1F
100
AcDbEntity
  8
0
  6
Continuous
 62
     8
370
    18
100
AcDbLine
 10
171.8330266615
 20
36.7432286139
 30
0.0
 11
171.8330266615
 21
34.4999104016
 31
0.0
  0
LINE
  5
31D
330
1F
100
AcDbEntity
  8
0
  6
Continuous
 62
     8
370
    18
100
AcDbLine
 10
168.3667023163
 20
34.4999104016
 30
0.0
 11
168.3667023163
 21
44.4499104016
 31
0.0
  0
LINE
  5
31E
330
1F
100
AcDbEntity
  8
0
  6
Continuous
 62
     8
370
    18
100
AcDbLine
 10
171.8330266615
 20
34.4999104016
 30
0.0
 11
171.8330266615
 21
28.2499104016
 31
0.0
  0
LINE
  5
31F
330
1F
100
AcDbEntity
  8
0
  6
Continuous
 62
     8
370
    18
100
AcDbLine
 10
171.8330266615
 20
34.4999104016
 30
0.0
 11
168.3667023163
 21
34.4999104016
 31
0.0
  0
LINE
  5
320
330
1F
100
AcDbEntity
  8
0
  6
Continuous
 62
     8
370
    18
100
AcDbLine
 10
216.8330266615
 20
89.8299104016
 30
0.0
 11
209.8330266615
 21
89.8299104016
 31
0.0
  0
LINE
  5
321
330
1F
100
AcDbEntity
  8
0
  6
Continuous
 62
     8
370
    18
100
AcDbLine
 10
197.8330266615
 20
89.8299104016
 30
0.0
 11
190.8330266615
 21
89.8299104016
 31
0.0
  0
LINE
  5
322
330
1F
100
AcDbEntity
  8
0
  6
Continuous
 62
     8
370
    18
100
AcDbLine
 10
229.3330266615
 20
103.0299104016
 30
0.0
 11
227.8330266615
 21
103.0299104016
 31
0.0
  0
LINE
  5
323
330
1F
100
AcDbEntity
  8
0
  6
Continuous
 62
     8
370
    18
100
AcDbLine
 10
210.3330266615
 20
84.5299104016
 30
0.0
 11
210.3330266615
 21
83.0299104016
 31
0.0
  0
ARC
  5
324
330
1F
100
AcDbEntity
  8
0
  6
Continuous
 62
     8
370
    18
100
AcDbCircle
 10
205.9749185454
 20
76.6618783462
 30
0.0
 40
0.4105729410361553
100
AcDbArc
 50
120.254374493
 51
184.4656719542
  0
ARC
  5
325
330
1F
100
AcDbEntity
  8
0
  6
Continuous
 62
     8
370
    18
100
AcDbCircle
 10
182.6911347775
 20
76.6618783462
 30
0.0
 40
0.4105729410312537
100
AcDbArc
 50
355.5343280457
 51
59.7456255074
  0
LINE
  5
326
330
1F
100
AcDbEntity
  8
0
  6
Continuous
 62
     8
370
    18
100
AcDbLine
 10
194.3330266615
 20
83.4299104016
 30
0.0
 11
200.3330266615
 21
83.4299104016
 31
0.0
  0
LINE
  5
327
330
1F
100
AcDbEntity
  8
0
  6
Continuous
 62
     8
370
    18
100
AcDbLine
 10
187.3330266615
 20
83.4299104016
 30
0.0
 11
194.3330266615
 21
83.4299104016
 31
0.0
  0
LINE
  5
328
330
1F
100
AcDbEntity
  8
0
  6
Continuous
 62
     8
370
    18
100
AcDbLine
 10
162.0055266615
 20
38.9448303451
 30
0.0
 11
162.0055266615
 21
31.3499104016
 31
0.0
  0
LINE
  5
329
330
1F
100
AcDbEntity
  8
0
  6
Continuous
 62
     8
370
    18
100
AcDbLine
 10
162.0055266615
 20
41.3499104016
 30
0.0
 11
162.0055266615
 21
38.9448303451
 31
0.0
  0
LINE
  5
32A
330
1F
100
AcDbEntity
  8
0
  6
Continuous
 62
     8
370
    18
100
AcDbLine
 10
156.2055266615
 20
31.3499104016
 30
0.0
 11
156.2055266615
 21
41.3499104016
 31
0.0
  0
ARC
  5
32B
330
1F
100
AcDbEntity
  8
0
  6
Continuous
 62
     7
370
    25
100
AcDbCircle
 10
42.5148830793
 20
180.3689280902
 30
0.0
 40
0.4000000000000227
100
AcDbArc
 50
180.0
 51
244.4530855326
  0
ARC
  5
32C
330
1F
100
AcDbEntity
  8
0
  6
Continuous
 62
     7
370
    25
100
AcDbCircle
 10
42.5148830793
 20
169.5689280902
 30
0.0
 40
0.4000000000000063
100
AcDbArc
 50
115.5469144674
 51
180.0
  0
LINE
  5
32D
330
1F
100
AcDbEntity
  8
0
  6
Continuous
 62
     7
370
    25
100
AcDbLine
 10
90.3558604604
 20
170.2118429714
 30
0.0
 11
90.4423830793
 21
170.2983655902
 31
0.0
  0
LINE
  5
32E
330
1F
100
AcDbEntity
  8
0
  6
Continuous
 62
     7
370
    25
100
AcDbLine
 10
90.4423830793
 20
179.6394905902
 30
0.0
 11
90.3558604604
 21
179.7260132091
 31
0.0
  0
LINE
  5
32F
330
1F
100
AcDbEntity
  8
0
  6
Continuous
 62
     7
370
    25
100
AcDbLine
 10
101.2983830793
 20
168.3904280902
 30
0.0
 11
107.2413830793
 21
168.3904280902
 31
0.0
  0
LINE
  5
330
330
1F
100
AcDbEntity
  8
0
  6
Continuous
 62
     7
370
    25
100
AcDbLine
 10
107.2413830793
 20
181.5474280902
 30
0.0
 11
101.2983830793
 21
181.5474280902
 31
0.0
  0
LINE
  5
331
330
1F
100
AcDbEntity
  8
0
  6
Continuous
 62
     7
370
    25
100
AcDbLine
 10
107.2413830793
 20
168.3904280902
 30
0.0
 11
108.5698830793
 21
169.7189280902
 31
0.0
  0
LINE
  5
332
330
1F
100
AcDbEntity
  8
0
  6
Continuous
 62
     7
370
    25
100
AcDbLine
 10
108.5698830793
 20
180.2189280902
 30
0.0
 11
107.2413830793
 21
181.5474280902
 31
0.0
  0
LINE
  5
333
330
1F
100
AcDbEntity
  8
0
  6
Continuous
 62
     7
370
    25
100
AcDbLine
 10
101.2983830793
 20
181.5474280902
 30
0.0
 11
99.7198830793
 21
179.9689280902
 31
0.0
  0
LINE
  5
334
330
1F
100
AcDbEntity
  8
0
  6
Continuous
 62
     7
370
    25
100
AcDbLine
 10
99.7198830793
 20
169.9689280902
 30
0.0
 11
101.2983830793
 21
168.3904280902
 31
0.0
  0
ARC
  5
335
330
1F
100
AcDbEntity
  8
0
  6
Continuous
 62
     7
370
    25
100
AcDbCircle
 10
97.9698830793
 20
180.3689280902
 30
0.0
 40
0.4000000000000199
100
AcDbArc
 50
180.0
 51
270.0
  0
ARC
  5
336
330
1F
100
AcDbEntity
  8
0
  6
Continuous
 62
     7
370
    25
100
AcDbCircle
 10
97.9698830793
 20
169.5689280902
 30
0.0
 40
0.4000000000000057
100
AcDbArc
 50
90.0
 51
180.0
  0
ARC
  5
337
330
1F
100
AcDbEntity
  8
0
  6
Continuous
 62
     7
370
    25
100
AcDbCircle
 10
92.1698830793
 20
169.5689280902
 30
0.0
 40
0.4000000000000057
100
AcDbArc
 50
0.0
 51
90.0
  0
ARC
  5
338
330
1F
100
AcDbEntity
  8
0
  6
Continuous
 62
     7
370
    25
100
AcDbCircle
 10
92.1698830793
 20
180.3689280902
 30
0.0
 40
0.3999999999999915
100
AcDbArc
 50
270.0
 51
0.0
  0
LINE
  5
339
330
1F
100
AcDbEntity
  8
0
  6
Continuous
 62
     7
370
    25
100
AcDbLine
 10
97.9698830793
 20
169.9689280902
 30
0.0
 11
99.7198830793
 21
169.9689280902
 31
0.0
  0
LINE
  5
33A
330
1F
100
AcDbEntity
  8
0
  6
Continuous
 62
     7
370
    25
100
AcDbLine
 10
99.7198830793
 20
179.9689280902
 30
0.0
 11
97.9698830793
 21
179.9689280902
 31
0.0
  0
LINE
  5
33B
330
1F
100
AcDbEntity
  8
0
  6
Continuous
 62
     7
370
    25
100
AcDbLine
 10
91.3267529897
 20
169.9689280902
 30
0.0
 11
92.1698830793
 21
169.9689280902
 31
0.0
  0
LINE
  5
33C
330
1F
100
AcDbEntity
  8
0
  6
Continuous
 62
     7
370
    25
100
AcDbLine
 10
92.1698830793
 20
179.9689280902
 30
0.0
 11
91.3267529897
 21
179.9689280902
 31
0.0
  0
LINE
  5
33D
330
1F
100
AcDbEntity
  8
0
  6
Continuous
 62
     7
370
    25
100
AcDbLine
 10
60.7648830793
 20
145.9689280902
 30
0.0
 11
62.3423830793
 21
144.3914280902
 31
0.0
  0
LINE
  5
33E
330
1F
100
AcDbEntity
  8
0
  6
Continuous
 62
     7
370
    25
100
AcDbLine
 10
72.3423830793
 20
144.3914280902
 30
0.0
 11
73.9198830793
 21
145.9689280902
 31
0.0
  0
LINE
  5
33F
330
1F
100
AcDbEntity
  8
0
  6
Continuous
 62
     7
370
    25
100
AcDbLine
 10
60.7638830793
 20
133.5129280902
 30
0.0
 11
60.7638830793
 21
127.5699280902
 31
0.0
  0
LINE
  5
340
330
1F
100
AcDbEntity
  8
0
  6
Continuous
 62
     7
370
    25
100
AcDbLine
 10
73.9208830793
 20
127.5699280902
 30
0.0
 11
73.9208830793
 21
133.5129280902
 31
0.0
  0
LINE
  5
341
330
1F
100
AcDbEntity
  8
0
  6
Continuous
 62
     7
370
    25
100
AcDbLine
 10
73.9208830793
 20
133.5129280902
 30
0.0
 11
72.3423830793
 21
135.0914280902
 31
0.0
  0
LINE
  5
342
330
1F
100
AcDbEntity
  8
0
  6
Continuous
 62
     7
370
    25
100
AcDbLine
 10
62.3423830793
 20
135.0914280902
 30
0.0
 11
60.7638830793
 21
133.5129280902
 31
0.0
  0
LINE
  5
343
330
1F
100
AcDbEntity
  8
0
  6
Continuous
 62
     7
370
    25
100
AcDbLine
 10
60.7638830793
 20
127.5699280902
 30
0.0
 11
62.0923830793
 21
126.2414280902
 31
0.0
  0
LINE
  5
344
330
1F
100
AcDbEntity
  8
0
  6
Continuous
 62
     7
370
    25
100
AcDbLine
 10
72.5923830793
 20
126.2414280902
 30
0.0
 11
73.9208830793
 21
127.5699280902
 31
0.0
  0
ARC
  5
345
330
1F
100
AcDbEntity
  8
0
  6
Continuous
 62
     7
370
    25
100
AcDbCircle
 10
61.9423830793
 20
142.6414280902
 30
0.0
 40
0.4000000000000341
100
AcDbArc
 50
270.0
 51
0.0
  0
ARC
  5
346
330
1F
100
AcDbEntity
  8
0
  6
Continuous
 62
     7
370
    25
100
AcDbCircle
 10
72.7423830793
 20
142.6414280902
 30
0.0
 40
0.4000000000000341
100
AcDbArc
 50
180.0
 51
270.0
  0
ARC
  5
347
330
1F
100
AcDbEntity
  8
0
  6
Continuous
 62
     7
370
    25
100
AcDbCircle
 10
72.7423830793
 20
136.8414280902
 30
0.0
 40
0.3999999999999915
100
AcDbArc
 50
90.0
 51
180.0
  0
ARC
  5
348
330
1F
100
AcDbEntity
  8
0
  6
Continuous
 62
     7
370
    25
100
AcDbCircle
 10
61.9423830793
 20
136.8414280902
 30
0.0
 40
0.4000000000000057
100
AcDbArc
 50
0.0
 51
90.0
  0
LINE
  5
349
330
1F
100
AcDbEntity
  8
0
  6
Continuous
 62
     7
370
    25
100
AcDbLine
 10
62.3423830793
 20
144.3914280902
 30
0.0
 11
62.3423830793
 21
142.6414280902
 31
0.0
  0
LINE
  5
34A
330
1F
100
AcDbEntity
  8
0
  6
Continuous
 62
     7
370
    25
100
AcDbLine
 10
72.3423830793
 20
142.6414280902
 30
0.0
 11
72.3423830793
 21
144.3914280902
 31
0.0
  0
LINE
  5
34B
330
1F
100
AcDbEntity
  8
0
  6
Continuous
 62
     7
370
    25
100
AcDbLine
 10
62.3423830793
 20
136.8414280902
 30
0.0
 11
62.3423830793
 21
135.0914280902
 31
0.0
  0
LINE
  5
34C
330
1F
100
AcDbEntity
  8
0
  6
Continuous
 62
     7
370
    25
100
AcDbLine
 10
72.3423830793
 20
135.0914280902
 30
0.0
 11
72.3423830793
 21
136.8414280902
 31
0.0
  0
LINE
  5
34D
330
1F
100
AcDbEntity
  8
0
  6
Continuous
 62
     7
370
    25
100
AcDbLine
 10
75.0923830793
 20
141.8084153883
 30
0.0
 11
74.3423830793
 21
142.2414280902
 31
0.0
  0
LINE
  5
34E
330
1F
100
AcDbEntity
  8
0
  6
Continuous
 62
     7
370
    25
100
AcDbLine
 10
74.3423830793
 20
137.2414280902
 30
0.0
 11
75.0923830793
 21
137.6744407921
 31
0.0
  0
LINE
  5
34F
330
1F
100
AcDbEntity
  8
0
  6
Continuous
 62
     7
370
    25
100
AcDbLine
 10
60.3423830793
 20
142.2414280902
 30
0.0
 11
59.5923830793
 21
141.8084153883
 31
0.0
  0
LINE
  5
350
330
1F
100
AcDbEntity
  8
0
  6
Continuous
 62
     7
370
    25
100
AcDbLine
 10
59.5923830793
 20
137.6744407921
 30
0.0
 11
60.3423830793
 21
137.2414280902
 31
0.0
  0
LINE
  5
351
330
1F
100
AcDbEntity
  8
0
  6
Continuous
 62
     7
370
    25
100
AcDbLine
 10
75.0923830793
 20
137.6744407921
 30
0.0
 11
75.0923830793
 21
141.8084153883
 31
0.0
  0
LINE
  5
352
330
1F
100
AcDbEntity
  8
0
  6
Continuous
 62
     7
370
    25
100
AcDbLine
 10
59.5923830793
 20
141.8084153883
 30
0.0
 11
59.5923830793
 21
137.6744407921
 31
0.0
  0
LINE
  5
353
330
1F
100
AcDbEntity
  8
0
  6
Continuous
 62
     7
370
    25
100
AcDbLine
 10
81.9704133049
 20
156.5129471702
 30
0.0
 11
81.9393559158
 21
156.5521318431
 31
0.0
  0
LINE
  5
354
330
1F
100
AcDbEntity
  8
0
  6
Continuous
 62
     7
370
    25
100
AcDbLine
 10
52.7143528538
 20
156.5129471702
 30
0.0
 11
52.8756055898
 21
156.3862789499
 31
0.0
  0
ARC
  5
355
330
1F
100
AcDbEntity
  8
0
  6
Continuous
 62
     7
370
    25
100
AcDbCircle
 10
67.3423830793
 20
174.9689280902
 30
0.0
 40
23.55
100
AcDbArc
 50
240.5154354197
 51
308.4
  0
LINE
  5
356
330
1F
100
AcDbEntity
  8
0
  6
Continuous
 62
     7
370
    25
100
AcDbLine
 10
52.7454102428
 20
156.5521318431
 30
0.0
 11
52.7143528538
 21
156.5129471702
 31
0.0
  0
SPLINE
  5
357
330
1F
100
AcDbEntity
  8
0
  6
Continuous
 62
     7
370
    25
100
AcDbSpline
210
0.0
220
0.0
230
1.0
 70
     8
 71
     3
 72
    10
 73
     6
 74
     0
 42
0.000000001
 43
0.00000001
 40
0.0
 40
0.0
 40
0.0
 40
0.0
 40
0.2538172255998938
 40
0.6254155652320266
 40
1.0
 40
1.0
 40
1.0
 40
1.0
 10
37.11488307930655
 20
178.4689280902177
 30
0.0
 10
37.12102405175096
 20
178.2226207691874
 30
0.0
 10
37.13615564789588
 20
177.6157099023664
 30
0.0
 10
37.27152236409563
 20
176.649778298187
 30
0.0
 10
37.45552585871744
 20
175.9432009229535
 30
0.0
 10
37.54789578119876
 20
175.588498434767
 30
0.0
  0
LINE
  5
358
330
1F
100
AcDbEntity
  8
0
  6
Continuous
 62
     7
370
    25
100
AcDbLine
 10
37.5478957812
 20
175.5884984348
 30
0.0
 11
37.5478957812
 21
174.3493577457
 31
0.0
  0
SPLINE
  5
359
330
1F
100
AcDbEntity
  8
0
  6
Continuous
 62
     7
370
    25
100
AcDbSpline
210
0.0
220
0.0
230
1.0
 70
     8
 71
     3
 72
     9
 73
     5
 74
     0
 42
0.000000001
 43
0.00000001
 40
0.0
 40
0.0
 40
0.0
 40
0.0
 40
0.4965134544262712
 40
1.0
 40
1.0
 40
1.0
 40
1.0
 10
37.54789578119875
 20
174.3493577456682
 30
0.0
 10
37.42537768464058
 20
173.8783863781805
 30
0.0
 10
37.17862083351003
 20
172.9298292680173
 30
0.0
 10
37.13622753481965
 20
171.9581536769715
 30
0.0
 10
37.11488307930657
 20
171.4689280902176
 30
0.0
  0
LINE
  5
35A
330
1F
100
AcDbEntity
  8
0
  6
Continuous
 62
     7
370
    25
100
AcDbLine
 10
37.1148830793
 20
171.4689280902
 30
0.0
 11
37.1148830793
 21
178.4689280902
 31
0.0
  0
SPLINE
  5
35B
330
1F
100
AcDbEntity
  8
0
  6
Continuous
 62
     7
370
    25
100
AcDbSpline
210
0.0
220
0.0
230
1.0
 70
     8
 71
     3
 72
     9
 73
     5
 74
     0
 42
0.000000001
 43
0.00000001
 40
0.0
 40
0.0
 40
0.0
 40
0.0
 40
0.4965134544262715
 40
0.9999999999999999
 40
0.9999999999999999
 40
0.9999999999999999
 40
0.9999999999999999
 10
41.68187037741435
 20
175.588498434767
 30
0.0
 10
41.80438847397252
 20
176.0594698022548
 30
0.0
 10
42.05114532510307
 20
177.008026912418
 30
0.0
 10
42.09353862379346
 20
177.9797025034638
 30
0.0
 10
42.11488307930655
 20
178.4689280902177
 30
0.0
  0
LINE
  5
35C
330
1F
100
AcDbEntity
  8
0
  6
Continuous
 62
     7
370
    25
100
AcDbLine
 10
42.1148830793
 20
178.4689280902
 30
0.0
 11
42.1148830793
 21
171.4689280902
 31
0.0
  0
SPLINE
  5
35D
330
1F
100
AcDbEntity
  8
0
  6
Continuous
 62
     7
370
    25
100
AcDbSpline
210
0.0
220
0.0
230
1.0
 70
     8
 71
     3
 72
    10
 73
     6
 74
     0
 42
0.000000001
 43
0.00000001
 40
0.0
 40
0.0
 40
0.0
 40
0.0
 40
0.2538172255998933
 40
0.6254155652320263
 40
1.0
 40
1.0
 40
1.0
 40
1.0
 10
42.11488307930657
 20
171.4689280902176
 30
0.0
 10
42.10874210686214
 20
171.7152354112479
 30
0.0
 10
42.09361051071722
 20
172.3221462780688
 30
0.0
 10
41.95824379451749
 20
173.2880778822483
 30
0.0
 10
41.77424029989567
 20
173.9946552574817
 30
0.0
 10
41.68187037741435
 20
174.3493577456683
 30
0.0
  0
LINE
  5
35E
330
1F
100
AcDbEntity
  8
0
  6
Continuous
 62
     7
370
    25
100
AcDbLine
 10
41.6818703774
 20
174.3493577457
 30
0.0
 11
41.6818703774
 21
175.5884984348
 31
0.0
  0
LINE
  5
35F
330
1F
100
AcDbEntity
  8
0
  6
Continuous
 62
     7
370
    25
100
AcDbLine
 10
37.5478957812
 20
174.3493577457
 30
0.0
 11
41.6818703774
 21
174.3493577457
 31
0.0
  0
LINE
  5
360
330
1F
100
AcDbEntity
  8
0
  6
Continuous
 62
     7
370
    25
100
AcDbLine
 10
41.6818703774
 20
175.5884984348
 30
0.0
 11
37.5478957812
 21
175.5884984348
 31
0.0
  0
SPLINE
  5
361
330
1F
100
AcDbEntity
  8
0
  6
Continuous
 62
     7
370
    25
100
AcDbSpline
210
0.0
220
0.0
230
1.0
 70
     8
 71
     3
 72
    10
 73
     6
 74
     0
 42
0.000000001
 43
0.00000001
 40
0.0
 40
0.0
 40
0.0
 40
0.0
 40
0.2538172255998951
 40
0.6254155652320275
 40
1.0
 40
1.0
 40
1.0
 40
1.0
 10
42.11488307930655
 20
178.4689280902177
 30
0.0
 10
42.10874210686215
 20
178.715235411248
 30
0.0
 10
42.09361051071721
 20
179.3221462780689
 30
0.0
 10
41.95824379451747
 20
180.2880778822484
 30
0.0
 10
41.77424029989567
 20
180.9946552574818
 30
0.0
 10
41.68187037741435
 20
181.3493577456684
 30
0.0
  0
SPLINE
  5
362
330
1F
100
AcDbEntity
  8
0
  6
Continuous
 62
     7
370
    25
100
AcDbSpline
210
0.0
220
0.0
230
1.0
 70
     8
 71
     3
 72
     9
 73
     5
 74
     0
 42
0.000000001
 43
0.00000001
 40
0.0
 40
0.0
 40
0.0
 40
0.0
 40
0.4965134544262715
 40
1.0
 40
1.0
 40
1.0
 40
1.0
 10
37.54789578119875
 20
181.3493577456684
 30
0.0
 10
37.42537768464057
 20
180.8783863781806
 30
0.0
 10
37.17862083351003
 20
179.9298292680174
 30
0.0
 10
37.13622753481965
 20
178.9581536769716
 30
0.0
 10
37.11488307930655
 20
178.4689280902177
 30
0.0
  0
LINE
  5
363
330
1F
100
AcDbEntity
  8
0
  6
Continuous
 62
     7
370
    25
100
AcDbLine
 10
37.5478957812
 20
181.3493577457
 30
0.0
 11
41.6818703774
 21
181.3493577457
 31
0.0
  0
SPLINE
  5
364
330
1F
100
AcDbEntity
  8
0
  6
Continuous
 62
     7
370
    25
100
AcDbSpline
210
0.0
220
0.0
230
1.0
 70
     8
 71
     3
 72
     9
 73
     5
 74
     0
 42
0.000000001
 43
0.00000001
 40
0.0
 40
0.0
 40
0.0
 40
0.0
 40
0.4965134544262715
 40
1.0
 40
1.0
 40
1.0
 40
1.0
 10
41.68187037741434
 20
168.5884984347669
 30
0.0
 10
41.80438847397252
 20
169.0594698022547
 30
0.0
 10
42.05114532510308
 20
170.0080269124179
 30
0.0
 10
42.09353862379346
 20
170.9797025034636
 30
0.0
 10
42.11488307930657
 20
171.4689280902176
 30
0.0
  0
LINE
  5
365
330
1F
100
AcDbEntity
  8
0
  6
Continuous
 62
     7
370
    25
100
AcDbLine
 10
41.6818703774
 20
168.5884984348
 30
0.0
 11
37.5478957812
 21
168.5884984348
 31
0.0
  0
SPLINE
  5
366
330
1F
100
AcDbEntity
  8
0
  6
Continuous
 62
     7
370
    25
100
AcDbSpline
210
0.0
220
0.0
230
1.0
 70
     8
 71
     3
 72
    10
 73
     6
 74
     0
 42
0.000000001
 43
0.00000001
 40
0.0
 40
0.0
 40
0.0
 40
0.0
 40
0.2538172255998928
 40
0.6254155652320262
 40
1.0
 40
1.0
 40
1.0
 40
1.0
 10
37.11488307930657
 20
171.4689280902176
 30
0.0
 10
37.12102405175097
 20
171.2226207691874
 30
0.0
 10
37.13615564789588
 20
170.6157099023663
 30
0.0
 10
37.27152236409563
 20
169.6497782981868
 30
0.0
 10
37.45552585871744
 20
168.9432009229535
 30
0.0
 10
37.54789578119875
 20
168.5884984347669
 30
0.0
  0
SPLINE
  5
367
330
1F
100
AcDbEntity
  8
0
  6
Continuous
 62
     7
370
    25
100
AcDbSpline
210
0.0
220
0.0
230
1.0
 70
    24
 71
     3
 72
     9
 73
     5
 74
     0
 42
0.000000001
 43
0.00000001
 40
0.0
 40
0.0
 40
0.0
 40
0.0
 40
0.556344471709159
 40
1.0
 40
1.0
 40
1.0
 40
1.0
 10
41.68187037741435
 20
181.9689280902176
 30
0.0
 10
41.81737609855521
 20
181.9689280902176
 30
0.0
 10
42.0609405231725
 20
181.9689280902176
 30
0.0
 10
42.09830577760956
 20
181.9689280902176
 30
0.0
 10
42.11488307930655
 20
181.9689280902176
 30
0.0
  0
LINE
  5
368
330
1F
100
AcDbEntity
  8
0
  6
Continuous
 62
     7
370
    25
100
AcDbLine
 10
41.6818703774
 20
181.3493577457
 30
0.0
 11
41.6818703774
 21
181.9689280902
 31
0.0
  0
LINE
  5
369
330
1F
100
AcDbEntity
  8
0
  6
Continuous
 62
     7
370
    25
100
AcDbLine
 10
42.1148830793
 20
181.9689280902
 30
0.0
 11
42.1148830793
 21
178.4689280902
 31
0.0
  0
SPLINE
  5
36A
330
1F
100
AcDbEntity
  8
0
  6
Continuous
 62
     7
370
    25
100
AcDbSpline
210
0.0
220
0.0
230
1.0
 70
    24
 71
     3
 72
     9
 73
     5
 74
     0
 42
0.000000001
 43
0.00000001
 40
0.0
 40
0.0
 40
0.0
 40
0.0
 40
0.4436555282908419
 40
1.0
 40
1.0
 40
1.0
 40
1.0
 10
37.11488307930655
 20
181.9689280902176
 30
0.0
 10
37.13146038100355
 20
181.9689280902176
 30
0.0
 10
37.16882563544062
 20
181.9689280902176
 30
0.0
 10
37.41239006005791
 20
181.9689280902176
 30
0.0
 10
37.54789578119876
 20
181.9689280902176
 30
0.0
  0
LINE
  5
36B
330
1F
100
AcDbEntity
  8
0
  6
Continuous
 62
     7
370
    25
100
AcDbLine
 10
37.5478957812
 20
181.9689280902
 30
0.0
 11
37.5478957812
 21
181.3493577457
 31
0.0
  0
LINE
  5
36C
330
1F
100
AcDbEntity
  8
0
  6
Continuous
 62
     7
370
    25
100
AcDbLine
 10
37.1148830793
 20
181.9689280902
 30
0.0
 11
37.1148830793
 21
178.4689280902
 31
0.0
  0
SPLINE
  5
36D
330
1F
100
AcDbEntity
  8
0
  6
Continuous
 62
     7
370
    25
100
AcDbSpline
210
0.0
220
0.0
230
1.0
 70
    24
 71
     3
 72
    11
 73
     7
 74
     0
 42
0.000000001
 43
0.00000001
 40
0.0
 40
0.0
 40
0.0
 40
0.0
 40
0.2214209950479323
 40
0.4436485711746004
 40
0.7212663669008818
 40
1.0
 40
1.0
 40
1.0
 40
1.0
 10
42.11488307930655
 20
167.9689280902176
 30
0.0
 10
42.11049156898722
 20
167.9689280902176
 30
0.0
 10
42.1016925511793
 20
167.9689280902176
 30
0.0
 10
42.02477517616333
 20
167.9689280902176
 30
0.0
 10
41.89354081938046
 20
167.9689280902176
 30
0.0
 10
41.75252146914018
 20
167.9689280902176
 30
0.0
 10
41.68187037741434
 20
167.9689280902176
 30
0.0
  0
LINE
  5
36E
330
1F
100
AcDbEntity
  8
0
  6
Continuous
 62
     7
370
    25
100
AcDbLine
 10
41.6818703774
 20
167.9689280902
 30
0.0
 11
41.6818703774
 21
168.5884984348
 31
0.0
  0
LINE
  5
36F
330
1F
100
AcDbEntity
  8
0
  6
Continuous
 62
     7
370
    25
100
AcDbLine
 10
42.1148830793
 20
171.4689280902
 30
0.0
 11
42.1148830793
 21
167.9689280902
 31
0.0
  0
SPLINE
  5
370
330
1F
100
AcDbEntity
  8
0
  6
Continuous
 62
     7
370
    25
100
AcDbSpline
210
0.0
220
0.0
230
1.0
 70
    24
 71
     3
 72
    11
 73
     7
 74
     0
 42
0.000000001
 43
0.00000001
 40
0.0
 40
0.0
 40
0.0
 40
0.0
 40
0.2776723350003071
 40
0.5563513941844207
 40
0.7777840963828321
 40
1.0
 40
1.0
 40
1.0
 40
1.0
 10
37.54789578119875
 20
167.9689280902176
 30
0.0
 10
37.47749883102467
 20
167.9689280902176
 30
0.0
 10
37.33644970066878
 20
167.9689280902176
 30
0.0
 10
37.20523821670007
 20
167.9689280902176
 30
0.0
 10
37.12813146610806
 20
167.9689280902176
 30
0.0
 10
37.11930440256805
 20
167.9689280902176
 30
0.0
 10
37.11488307930655
 20
167.9689280902176
 30
0.0
  0
LINE
  5
371
330
1F
100
AcDbEntity
  8
0
  6
Continuous
 62
     7
370
    25
100
AcDbLine
 10
37.5478957812
 20
168.5884984348
 30
0.0
 11
37.5478957812
 21
167.9689280902
 31
0.0
  0
LINE
  5
372
330
1F
100
AcDbEntity
  8
0
  6
Continuous
 62
     7
370
    25
100
AcDbLine
 10
37.1148830793
 20
167.9689280902
 30
0.0
 11
37.1148830793
 21
171.4689280902
 31
0.0
  0
LINE
  5
373
330
1F
100
AcDbEntity
  8
0
  6
Continuous
 62
     7
370
    25
100
AcDbLine
 10
41.6818703774
 20
181.9689280902
 30
0.0
 11
37.5478957812
 21
181.9689280902
 31
0.0
  0
LINE
  5
374
330
1F
100
AcDbEntity
  8
0
  6
Continuous
 62
     7
370
    25
100
AcDbLine
 10
37.5478957812
 20
167.9689280902
 30
0.0
 11
41.6818703774
 21
167.9689280902
 31
0.0
  0
LINE
  5
375
330
1F
100
AcDbEntity
  8
0
  6
Continuous
 62
     7
370
    25
100
AcDbLine
 10
90.4423830793
 20
179.2863347193
 30
0.0
 11
90.4423830793
 21
179.6394905902
 31
0.0
  0
LINE
  5
376
330
1F
100
AcDbEntity
  8
0
  6
Continuous
 62
     7
370
    25
100
AcDbLine
 10
90.4423830793
 20
170.2983655902
 30
0.0
 11
90.4423830793
 21
170.6515214611
 31
0.0
  0
ARC
  5
377
330
1F
100
AcDbEntity
  8
0
  6
Continuous
 62
     7
370
    25
100
AcDbCircle
 10
67.3423830793
 20
174.9689280902
 30
0.0
 40
24.5
100
AcDbArc
 50
236.796900802
 51
0.0
  0
ARC
  5
378
330
1F
100
AcDbEntity
  8
0
  6
Continuous
 62
     7
370
    25
100
AcDbCircle
 10
67.3423830793
 20
174.9689280902
 30
0.0
 40
24.5
100
AcDbArc
 50
0.0
 51
22.7827828924
  0
ARC
  5
379
330
1F
100
AcDbEntity
  8
0
  6
Continuous
 62
     7
370
    25
100
AcDbCircle
 10
67.3423830793
 20
174.9689280902
 30
0.0
 40
23.99999999999998
100
AcDbArc
 50
0.0
 51
22.2249981347
  0
ARC
  5
37A
330
1F
100
AcDbEntity
  8
0
  6
Continuous
 62
     7
370
    25
100
AcDbCircle
 10
67.3423830793
 20
174.9689280902
 30
0.0
 40
24.0
100
AcDbArc
 50
40.7039048744
 51
49.2960951256
  0
ARC
  5
37B
330
1F
100
AcDbEntity
  8
0
  6
Continuous
 62
     7
370
    25
100
AcDbCircle
 10
67.3423830793
 20
174.9689280902
 30
0.0
 40
23.99999999999999
100
AcDbArc
 50
130.7039048744
 51
139.2960951256
  0
ARC
  5
37C
330
1F
100
AcDbEntity
  8
0
  6
Continuous
 62
     7
370
    25
100
AcDbCircle
 10
67.3423830793
 20
174.9689280902
 30
0.0
 40
23.99999999999997
100
AcDbArc
 50
220.7039048744
 51
229.2960951256
  0
ARC
  5
37D
330
1F
100
AcDbEntity
  8
0
  6
Continuous
 62
     7
370
    25
100
AcDbCircle
 10
67.3423830793
 20
174.9689280902
 30
0.0
 40
23.99999999999997
100
AcDbArc
 50
238.6677932928
 51
0.0
  0
SPLINE
  5
37E
330
1F
100
AcDbEntity
  8
0
  6
Continuous
 62
     7
370
    25
100
AcDbSpline
210
0.0
220
0.0
230
1.0
 70
     8
 71
     3
 72
    12
 73
     8
 74
     0
 42
0.000000001
 43
0.00000001
 40
0.0
 40
0.0
 40
0.0
 40
0.0
 40
0.249999999999999
 40
0.249999999999999
 40
0.499999999999998
 40
0.499999999999998
 40
1.0
 40
1.0
 40
1.0
 40
1.0
 10
57.13996997624574
 20
152.2550387959009
 30
0.0
 10
57.0365934428086
 20
152.3757426263204
 30
0.0
 10
56.92930792642167
 20
152.4894429837402
 30
0.0
 10
56.70619244116574
 20
152.7051520988703
 30
0.0
 10
56.58987410180268
 20
152.8075006975067
 30
0.0
 10
56.2315644771513
 20
153.0948385734823
 30
0.0
 10
55.97930343256277
 20
153.2613164370563
 30
0.0
 10
55.71526443523877
 20
153.4036756679353
 30
0.0
  0
SPLINE
  5
37F
330
1F
100
AcDbEntity
  8
0
  6
Continuous
 62
     7
370
    25
100
AcDbSpline
210
0.0
220
0.0
230
1.0
 70
     8
 71
     3
 72
    12
 73
     8
 74
     0
 42
0.000000001
 43
0.00000001
 40
0.0
 40
0.0
 40
0.0
 40
0.0
 40
0.249999999999999
 40
0.249999999999999
 40
0.499999999999998
 40
0.499999999999998
 40
1.0
 40
1.0
 40
1.0
 40
1.0
 10
77.54479618236739
 20
152.2550387959009
 30
0.0
 10
77.64817271580455
 20
152.3757426263204
 30
0.0
 10
77.75545823219146
 20
152.4894429837402
 30
0.0
 10
77.97857371744739
 20
152.7051520988703
 30
0.0
 10
78.09489205681045
 20
152.8075006975067
 30
0.0
 10
78.45320168146183
 20
153.0948385734823
 30
0.0
 10
78.70546272605036
 20
153.2613164370563
 30
0.0
 10
78.96950172337438
 20
153.4036756679353
 30
0.0
  0
LINE
  5
380
330
1F
100
AcDbEntity
  8
0
  6
Continuous
 62
     7
370
    25
100
AcDbLine
 10
58.3423830793
 20
146.9689280902
 30
0.0
 11
59.3423830793
 21
145.9689280902
 31
0.0
  0
LINE
  5
381
330
1F
100
AcDbEntity
  8
0
  6
Continuous
 62
     7
370
    25
100
AcDbLine
 10
58.3423830793
 20
146.9689280902
 30
0.0
 11
58.3423830793
 21
149.002603745
 31
0.0
  0
LINE
  5
382
330
1F
100
AcDbEntity
  8
0
  6
Continuous
 62
     7
370
    25
100
AcDbLine
 10
76.3423830793
 20
146.9689280902
 30
0.0
 11
76.3423830793
 21
149.002603745
 31
0.0
  0
LINE
  5
383
330
1F
100
AcDbEntity
  8
0
  6
Continuous
 62
     7
370
    25
100
AcDbLine
 10
75.3423830793
 20
145.9689280902
 30
0.0
 11
76.3423830793
 21
146.9689280902
 31
0.0
  0
LINE
  5
384
330
1F
100
AcDbEntity
  8
0
  6
Continuous
 62
     7
370
    25
100
AcDbLine
 10
75.3423830793
 20
145.9689280902
 30
0.0
 11
59.3423830793
 21
145.9689280902
 31
0.0
  0
ARC
  5
385
330
1F
100
AcDbEntity
  8
0
  6
Continuous
 62
     7
370
    25
100
AcDbCircle
 10
53.3423830793
 20
149.002603745
 30
0.0
 40
5.0
100
AcDbArc
 50
0.0
 51
40.5783304234
  0
ARC
  5
386
330
1F
100
AcDbEntity
  8
0
  6
Continuous
 62
     7
370
    25
100
AcDbCircle
 10
81.3423830793
 20
149.002603745
 30
0.0
 40
5.000000000000016
100
AcDbArc
 50
139.4216695766
 51
180.0
  0
LINE
  5
387
330
1F
100
AcDbEntity
  8
0
  6
Continuous
 62
     7
370
    25
100
AcDbLine
 10
68.2084084831
 20
192.4689280902
 30
0.0
 11
69.0744338869
 21
193.9689280902
 31
0.0
  0
LINE
  5
388
330
1F
100
AcDbEntity
  8
0
  6
Continuous
 62
     7
370
    25
100
AcDbLine
 10
69.0744338869
 20
193.9689280902
 30
0.0
 11
68.2084084831
 21
195.4689280902
 31
0.0
  0
LINE
  5
389
330
1F
100
AcDbEntity
  8
0
  6
Continuous
 62
     7
370
    25
100
AcDbLine
 10
68.2084084831
 20
195.4689280902
 30
0.0
 11
66.4763576755
 21
195.4689280902
 31
0.0
  0
LINE
  5
38A
330
1F
100
AcDbEntity
  8
0
  6
Continuous
 62
     7
370
    25
100
AcDbLine
 10
65.6103322717
 20
193.9689280902
 30
0.0
 11
66.4763576755
 21
195.4689280902
 31
0.0
  0
LINE
  5
38B
330
1F
100
AcDbEntity
  8
0
  6
Continuous
 62
     7
370
    25
100
AcDbLine
 10
66.4763576755
 20
192.4689280902
 30
0.0
 11
65.6103322717
 21
193.9689280902
 31
0.0
  0
LINE
  5
38C
330
1F
100
AcDbEntity
  8
0
  6
Continuous
 62
     7
370
    25
100
AcDbLine
 10
68.2084084831
 20
192.4689280902
 30
0.0
 11
66.4763576755
 21
192.4689280902
 31
0.0
  0
CIRCLE
  5
38D
330
1F
100
AcDbEntity
  8
0
  6
Continuous
 62
     7
370
    25
100
AcDbCircle
 10
67.3423830793
 20
193.9689280902
 30
0.0
 40
3.500000000000007
  0
CIRCLE
  5
38E
330
1F
100
AcDbEntity
  8
0
  6
Continuous
 62
     7
370
    25
100
AcDbCircle
 10
48.3423830793
 20
174.9689280902
 30
0.0
 40
3.5
  0
LINE
  5
38F
330
1F
100
AcDbEntity
  8
0
  6
Continuous
 62
     7
370
    25
100
AcDbLine
 10
49.2084084831
 20
173.4689280902
 30
0.0
 11
50.0744338869
 21
174.9689280902
 31
0.0
  0
LINE
  5
390
330
1F
100
AcDbEntity
  8
0
  6
Continuous
 62
     7
370
    25
100
AcDbLine
 10
50.0744338869
 20
174.9689280902
 30
0.0
 11
49.2084084831
 21
176.4689280902
 31
0.0
  0
LINE
  5
391
330
1F
100
AcDbEntity
  8
0
  6
Continuous
 62
     7
370
    25
100
AcDbLine
 10
49.2084084831
 20
176.4689280902
 30
0.0
 11
47.4763576755
 21
176.4689280902
 31
0.0
  0
LINE
  5
392
330
1F
100
AcDbEntity
  8
0
  6
Continuous
 62
     7
370
    25
100
AcDbLine
 10
46.6103322717
 20
174.9689280902
 30
0.0
 11
47.4763576755
 21
176.4689280902
 31
0.0
  0
LINE
  5
393
330
1F
100
AcDbEntity
  8
0
  6
Continuous
 62
     7
370
    25
100
AcDbLine
 10
47.4763576755
 20
173.4689280902
 30
0.0
 11
46.6103322717
 21
174.9689280902
 31
0.0
  0
LINE
  5
394
330
1F
100
AcDbEntity
  8
0
  6
Continuous
 62
     7
370
    25
100
AcDbLine
 10
49.2084084831
 20
173.4689280902
 30
0.0
 11
47.4763576755
 21
173.4689280902
 31
0.0
  0
LINE
  5
395
330
1F
100
AcDbEntity
  8
0
  6
Continuous
 62
     7
370
    25
100
AcDbLine
 10
87.3423830793
 20
208.4689280902
 30
0.0
 11
47.3423830793
 21
208.4689280902
 31
0.0
  0
LINE
  5
396
330
1F
100
AcDbEntity
  8
0
  6
Continuous
 62
     7
370
    25
100
AcDbLine
 10
87.3423830793
 20
209.9689280902
 30
0.0
 11
47.3423830793
 21
209.9689280902
 31
0.0
  0
LINE
  5
397
330
1F
100
AcDbEntity
  8
0
  6
Continuous
 62
     7
370
    25
100
AcDbLine
 10
42.3423830793
 20
209.9689280902
 30
0.0
 11
42.3423830793
 21
208.4689280902
 31
0.0
  0
LINE
  5
398
330
1F
100
AcDbEntity
  8
0
  6
Continuous
 62
     7
370
    25
100
AcDbLine
 10
42.3423830793
 20
208.4689280902
 30
0.0
 11
47.3423830793
 21
208.4689280902
 31
0.0
  0
LINE
  5
399
330
1F
100
AcDbEntity
  8
0
  6
Continuous
 62
     7
370
    25
100
AcDbLine
 10
47.3423830793
 20
209.9689280902
 30
0.0
 11
42.3423830793
 21
209.9689280902
 31
0.0
  0
LINE
  5
39A
330
1F
100
AcDbEntity
  8
0
  6
Continuous
 62
     7
370
    25
100
AcDbLine
 10
92.3423830793
 20
209.9689280902
 30
0.0
 11
92.3423830793
 21
208.4689280902
 31
0.0
  0
LINE
  5
39B
330
1F
100
AcDbEntity
  8
0
  6
Continuous
 62
     7
370
    25
100
AcDbLine
 10
92.3423830793
 20
208.4689280902
 30
0.0
 11
87.3423830793
 21
208.4689280902
 31
0.0
  0
LINE
  5
39C
330
1F
100
AcDbEntity
  8
0
  6
Continuous
 62
     7
370
    25
100
AcDbLine
 10
87.3423830793
 20
209.9689280902
 30
0.0
 11
92.3423830793
 21
209.9689280902
 31
0.0
  0
LINE
  5
39D
330
1F
100
AcDbEntity
  8
0
  6
Continuous
 62
     7
370
    25
100
AcDbLine
 10
92.3423830793
 20
208.4689280902
 30
0.0
 11
92.3423830793
 21
206.9689280902
 31
0.0
  0
LINE
  5
39E
330
1F
100
AcDbEntity
  8
0
  6
Continuous
 62
     7
370
    25
100
AcDbLine
 10
42.3423830793
 20
208.4689280902
 30
0.0
 11
42.3423830793
 21
206.9689280902
 31
0.0
  0
CIRCLE
  5
39F
330
1F
100
AcDbEntity
  8
0
  6
Continuous
 62
     7
370
    25
100
AcDbCircle
 10
53.9073542368
 20
188.4039569328
 30
0.0
 40
5.25
  0
CIRCLE
  5
3A0
330
1F
100
AcDbEntity
  8
0
  6
Continuous
 62
     7
370
    25
100
AcDbCircle
 10
53.9073542368
 20
161.5338992477
 30
0.0
 40
5.25
  0
CIRCLE
  5
3A1
330
1F
100
AcDbEntity
  8
0
  6
Continuous
 62
     7
370
    25
100
AcDbCircle
 10
67.3423830793
 20
162.9689280902
 30
0.0
 40
2.199999999999989
  0
CIRCLE
  5
3A2
330
1F
100
AcDbEntity
  8
0
  6
Continuous
 62
     7
370
    25
100
AcDbCircle
 10
80.7774119219
 20
188.4039569328
 30
0.0
 40
5.25
  0
LINE
  5
3A3
330
1F
100
AcDbEntity
  8
0
  6
Continuous
 62
     7
370
    25
100
AcDbLine
 10
76.7774119219
 20
182.9689280902
 30
0.0
 11
67.3423830793
 21
182.9689280902
 31
0.0
  0
ARC
  5
3A4
330
1F
100
AcDbEntity
  8
0
  6
Continuous
 62
     7
370
    25
100
AcDbCircle
 10
67.3423830793
 20
174.9689280902
 30
0.0
 40
8.0
100
AcDbArc
 50
90.0
 51
270.0
  0
LINE
  5
3A5
330
1F
100
AcDbEntity
  8
0
  6
Continuous
 62
     7
370
    25
100
AcDbLine
 10
67.3423830793
 20
166.9689280902
 30
0.0
 11
68.5423830793
 21
166.9689280902
 31
0.0
  0
ARC
  5
3A6
330
1F
100
AcDbEntity
  8
0
  6
Continuous
 62
     7
370
    25
100
AcDbCircle
 10
68.5423830793
 20
162.9689280902
 30
0.0
 40
4.0
100
AcDbArc
 50
0.0
 51
90.0
  0
LINE
  5
3A7
330
1F
100
AcDbEntity
  8
0
  6
Continuous
 62
     7
370
    25
100
AcDbLine
 10
72.5423830793
 20
162.9689280902
 30
0.0
 11
72.5423830793
 21
159.4689280902
 31
0.0
  0
ARC
  5
3A8
330
1F
100
AcDbEntity
  8
0
  6
Continuous
 62
     7
370
    25
100
AcDbCircle
 10
67.5423830793
 20
159.4689280902
 30
0.0
 40
5.0
100
AcDbArc
 50
270.0
 51
0.0
  0
LINE
  5
3A9
330
1F
100
AcDbEntity
  8
0
  6
Continuous
 62
     7
370
    25
100
AcDbLine
 10
67.5423830793
 20
154.4689280902
 30
0.0
 11
52.3423830793
 21
154.4689280902
 31
0.0
  0
ARC
  5
3AA
330
1F
100
AcDbEntity
  8
0
  6
Continuous
 62
     7
370
    25
100
AcDbCircle
 10
52.3423830793
 20
164.4689280902
 30
0.0
 40
9.999999999999986
100
AcDbArc
 50
180.0
 51
270.0
  0
ARC
  5
3AB
330
1F
100
AcDbEntity
  8
0
  6
Continuous
 62
     7
370
    25
100
AcDbCircle
 10
82.3423830793
 20
190.9689280902
 30
0.0
 40
10.0
100
AcDbArc
 50
270.0
 51
0.0
  0
LINE
  5
3AC
330
1F
100
AcDbEntity
  8
0
  6
Continuous
 62
     7
370
    25
100
AcDbLine
 10
78.7774119219
 20
180.9689280902
 30
0.0
 11
82.3423830793
 21
180.9689280902
 31
0.0
  0
ARC
  5
3AD
330
1F
100
AcDbEntity
  8
0
  6
Continuous
 62
     7
370
    25
100
AcDbCircle
 10
78.7774119219
 20
181.9689280902
 30
0.0
 40
1.0
100
AcDbArc
 50
180.0
 51
270.0
  0
ARC
  5
3AE
330
1F
100
AcDbEntity
  8
0
  6
Continuous
 62
     7
370
    25
100
AcDbCircle
 10
76.7774119219
 20
181.9689280902
 30
0.0
 40
1.0
100
AcDbArc
 50
0.0
 51
90.0
  0
CIRCLE
  5
3AF
330
1F
100
AcDbEntity
  8
0
  6
Continuous
 62
     7
370
    25
100
AcDbCircle
 10
67.3423830793
 20
186.9689280902
 30
0.0
 40
2.200000000000017
  0
LINE
  5
3B0
330
1F
100
AcDbEntity
  8
0
  6
Continuous
 62
     7
370
    25
100
AcDbLine
 10
92.3423830793
 20
190.9689280902
 30
0.0
 11
92.3423830793
 21
206.9689280902
 31
0.0
  0
LINE
  5
3B1
330
1F
100
AcDbEntity
  8
0
  6
Continuous
 62
     7
370
    25
100
AcDbLine
 10
42.3423830793
 20
164.4689280902
 30
0.0
 11
42.3423830793
 21
206.9689280902
 31
0.0
  0
CIRCLE
  5
3B2
330
1F
100
AcDbEntity
  8
0
  6
Continuous
 62
     7
370
    25
100
AcDbCircle
 10
80.7774119219
 20
188.4039569328
 30
0.0
 40
4.0
  0
CIRCLE
  5
3B3
330
1F
100
AcDbEntity
  8
0
  6
Continuous
 62
     7
370
    25
100
AcDbCircle
 10
53.9073542368
 20
188.4039569328
 30
0.0
 40
4.000000000000007
  0
CIRCLE
  5
3B4
330
1F
100
AcDbEntity
  8
0
  6
Continuous
 62
     7
370
    25
100
AcDbCircle
 10
53.8264751608
 20
161.5160016178
 30
0.0
 40
4.000000000000007
  0
CIRCLE
  5
3B5
330
1F
100
AcDbEntity
  8
0
  6
Continuous
 62
     7
370
    25
100
AcDbCircle
 10
80.7774119219
 20
161.5338992477
 30
0.0
 40
4.000000000000014
  0
CIRCLE
  5
3B6
330
1F
100
AcDbEntity
  8
0
  6
Continuous
 62
     7
370
    25
100
AcDbCircle
 10
67.3423830793
 20
193.9689280902
 30
0.0
 40
4.000000000000007
  0
CIRCLE
  5
3B7
330
1F
100
AcDbEntity
  8
0
  6
Continuous
 62
     7
370
    25
100
AcDbCircle
 10
48.3423830793
 20
174.9689280902
 30
0.0
 40
3.999999999999993
  0
CIRCLE
  5
3B8
330
1F
100
AcDbEntity
  8
0
  6
Continuous
 62
     7
370
    25
100
AcDbCircle
 10
80.7774119219
 20
161.5338992477
 30
0.0
 40
3.099999999999284
  0
CIRCLE
  5
3B9
330
1F
100
AcDbEntity
  8
0
  6
Continuous
 62
     7
370
    25
100
AcDbCircle
 10
80.7774119219
 20
161.5338992477
 30
0.0
 40
3.5
  0
LINE
  5
3BA
330
1F
100
AcDbEntity
  8
0
  6
Continuous
 62
     7
370
    25
100
AcDbLine
 10
81.6434373256
 20
160.0338992477
 30
0.0
 11
82.5094627294
 21
161.5338992477
 31
0.0
  0
LINE
  5
3BB
330
1F
100
AcDbEntity
  8
0
  6
Continuous
 62
     7
370
    25
100
AcDbLine
 10
82.5094627294
 20
161.5338992477
 30
0.0
 11
81.6434373256
 21
163.0338992477
 31
0.0
  0
LINE
  5
3BC
330
1F
100
AcDbEntity
  8
0
  6
Continuous
 62
     7
370
    25
100
AcDbLine
 10
81.6434373256
 20
163.0338992477
 30
0.0
 11
79.9113865181
 21
163.0338992477
 31
0.0
  0
LINE
  5
3BD
330
1F
100
AcDbEntity
  8
0
  6
Continuous
 62
     7
370
    25
100
AcDbLine
 10
79.9113865181
 20
163.0338992477
 30
0.0
 11
79.0453611143
 21
161.5338992477
 31
0.0
  0
LINE
  5
3BE
330
1F
100
AcDbEntity
  8
0
  6
Continuous
 62
     7
370
    25
100
AcDbLine
 10
79.0453611143
 20
161.5338992477
 30
0.0
 11
79.9113865181
 21
160.0338992477
 31
0.0
  0
LINE
  5
3BF
330
1F
100
AcDbEntity
  8
0
  6
Continuous
 62
     7
370
    25
100
AcDbLine
 10
79.9113865181
 20
160.0338992477
 30
0.0
 11
81.6434373256
 21
160.0338992477
 31
0.0
  0
ARC
  5
3C0
330
1F
100
AcDbEntity
  8
0
  6
Continuous
 62
     7
370
    25
100
AcDbCircle
 10
80.7774119219
 20
161.5338992477
 30
0.0
 40
1.500000000021381
100
AcDbArc
 50
330.0
 51
30.0
  0
ARC
  5
3C1
330
1F
100
AcDbEntity
  8
0
  6
Continuous
 62
     7
370
    25
100
AcDbCircle
 10
80.7774119219
 20
161.5338992477
 30
0.0
 40
1.500000000021418
100
AcDbArc
 50
90.0
 51
150.0
  0
ARC
  5
3C2
330
1F
100
AcDbEntity
  8
0
  6
Continuous
 62
     7
370
    25
100
AcDbCircle
 10
80.7774119219
 20
161.5338992477
 30
0.0
 40
1.500000000021392
100
AcDbArc
 50
210.0
 51
270.0
  0
ARC
  5
3C3
330
1F
100
AcDbEntity
  8
0
  6
Continuous
 62
     7
370
    25
100
AcDbCircle
 10
80.7774119219
 20
161.5338992477
 30
0.0
 40
1.500000000021402
100
AcDbArc
 50
30.0
 51
90.0
  0
ARC
  5
3C4
330
1F
100
AcDbEntity
  8
0
  6
Continuous
 62
     7
370
    25
100
AcDbCircle
 10
80.7774119219
 20
161.5338992477
 30
0.0
 40
1.500000000021418
100
AcDbArc
 50
150.0
 51
210.0
  0
ARC
  5
3C5
330
1F
100
AcDbEntity
  8
0
  6
Continuous
 62
     7
370
    25
100
AcDbCircle
 10
80.7774119219
 20
161.5338992477
 30
0.0
 40
1.500000000021373
100
AcDbArc
 50
270.0
 51
330.0
  0
LINE
  5
3C6
330
1F
100
AcDbEntity
  8
0
  6
Continuous
 62
     7
370
    25
100
AcDbLine
 10
82.5094627294
 20
188.4039569328
 30
0.0
 11
81.6434373256
 21
189.9039569328
 31
0.0
  0
LINE
  5
3C7
330
1F
100
AcDbEntity
  8
0
  6
Continuous
 62
     7
370
    25
100
AcDbLine
 10
81.6434373256
 20
189.9039569328
 30
0.0
 11
79.9113865181
 21
189.9039569328
 31
0.0
  0
LINE
  5
3C8
330
1F
100
AcDbEntity
  8
0
  6
Continuous
 62
     7
370
    25
100
AcDbLine
 10
79.9113865181
 20
189.9039569328
 30
0.0
 11
79.0453611143
 21
188.4039569328
 31
0.0
  0
LINE
  5
3C9
330
1F
100
AcDbEntity
  8
0
  6
Continuous
 62
     7
370
    25
100
AcDbLine
 10
79.0453611143
 20
188.4039569328
 30
0.0
 11
79.9113865181
 21
186.9039569328
 31
0.0
  0
LINE
  5
3CA
330
1F
100
AcDbEntity
  8
0
  6
Continuous
 62
     7
370
    25
100
AcDbLine
 10
79.9113865181
 20
186.9039569328
 30
0.0
 11
81.6434373256
 21
186.9039569328
 31
0.0
  0
LINE
  5
3CB
330
1F
100
AcDbEntity
  8
0
  6
Continuous
 62
     7
370
    25
100
AcDbLine
 10
81.6434373256
 20
186.9039569328
 30
0.0
 11
82.5094627294
 21
188.4039569328
 31
0.0
  0
CIRCLE
  5
3CC
330
1F
100
AcDbEntity
  8
0
  6
Continuous
 62
     7
370
    25
100
AcDbCircle
 10
80.7774119219
 20
188.4039569328
 30
0.0
 40
3.099999999999286
  0
CIRCLE
  5
3CD
330
1F
100
AcDbEntity
  8
0
  6
Continuous
 62
     7
370
    25
100
AcDbCircle
 10
80.7774119219
 20
188.4039569328
 30
0.0
 40
3.500000000000031
  0
ARC
  5
3CE
330
1F
100
AcDbEntity
  8
0
  6
Continuous
 62
     7
370
    25
100
AcDbCircle
 10
80.7774119219
 20
188.4039569328
 30
0.0
 40
1.500000000021373
100
AcDbArc
 50
30.0
 51
90.0
  0
ARC
  5
3CF
330
1F
100
AcDbEntity
  8
0
  6
Continuous
 62
     7
370
    25
100
AcDbCircle
 10
80.7774119219
 20
188.4039569328
 30
0.0
 40
1.500000000021373
100
AcDbArc
 50
270.0
 51
330.0
  0
ARC
  5
3D0
330
1F
100
AcDbEntity
  8
0
  6
Continuous
 62
     7
370
    25
100
AcDbCircle
 10
80.7774119219
 20
188.4039569328
 30
0.0
 40
1.500000000021392
100
AcDbArc
 50
150.0
 51
210.0
  0
ARC
  5
3D1
330
1F
100
AcDbEntity
  8
0
  6
Continuous
 62
     7
370
    25
100
AcDbCircle
 10
80.7774119219
 20
188.4039569328
 30
0.0
 40
1.500000000021379
100
AcDbArc
 50
90.0
 51
150.0
  0
ARC
  5
3D2
330
1F
100
AcDbEntity
  8
0
  6
Continuous
 62
     7
370
    25
100
AcDbCircle
 10
80.7774119219
 20
188.4039569328
 30
0.0
 40
1.500000000021367
100
AcDbArc
 50
330.0
 51
30.0
  0
ARC
  5
3D3
330
1F
100
AcDbEntity
  8
0
  6
Continuous
 62
     7
370
    25
100
AcDbCircle
 10
80.7774119219
 20
188.4039569328
 30
0.0
 40
1.500000000021392
100
AcDbArc
 50
210.0
 51
270.0
  0
CIRCLE
  5
3D4
330
1F
100
AcDbEntity
  8
0
  6
Continuous
 62
     7
370
    25
100
AcDbCircle
 10
53.8264751608
 20
161.5160016178
 30
0.0
 40
3.099999999999265
  0
CIRCLE
  5
3D5
330
1F
100
AcDbEntity
  8
0
  6
Continuous
 62
     7
370
    25
100
AcDbCircle
 10
53.8264751608
 20
161.5160016178
 30
0.0
 40
3.500000000000004
  0
LINE
  5
3D6
330
1F
100
AcDbEntity
  8
0
  6
Continuous
 62
     7
370
    25
100
AcDbLine
 10
52.960449757
 20
160.0160016178
 30
0.0
 11
54.6925005646
 21
160.0160016178
 31
0.0
  0
LINE
  5
3D7
330
1F
100
AcDbEntity
  8
0
  6
Continuous
 62
     7
370
    25
100
AcDbLine
 10
54.6925005646
 20
160.0160016178
 30
0.0
 11
55.5585259684
 21
161.5160016178
 31
0.0
  0
LINE
  5
3D8
330
1F
100
AcDbEntity
  8
0
  6
Continuous
 62
     7
370
    25
100
AcDbLine
 10
55.5585259684
 20
161.5160016178
 30
0.0
 11
54.6925005646
 21
163.0160016178
 31
0.0
  0
LINE
  5
3D9
330
1F
100
AcDbEntity
  8
0
  6
Continuous
 62
     7
370
    25
100
AcDbLine
 10
54.6925005646
 20
163.0160016178
 30
0.0
 11
52.960449757
 21
163.0160016178
 31
0.0
  0
LINE
  5
3DA
330
1F
100
AcDbEntity
  8
0
  6
Continuous
 62
     7
370
    25
100
AcDbLine
 10
52.960449757
 20
163.0160016178
 30
0.0
 11
52.0944243533
 21
161.5160016178
 31
0.0
  0
LINE
  5
3DB
330
1F
100
AcDbEntity
  8
0
  6
Continuous
 62
     7
370
    25
100
AcDbLine
 10
52.0944243533
 20
161.5160016178
 30
0.0
 11
52.960449757
 21
160.0160016178
 31
0.0
  0
ARC
  5
3DC
330
1F
100
AcDbEntity
  8
0
  6
Continuous
 62
     7
370
    25
100
AcDbCircle
 10
53.8264751608
 20
161.5160016178
 30
0.0
 40
1.500000000021392
100
AcDbArc
 50
30.0
 51
90.0
  0
ARC
  5
3DD
330
1F
100
AcDbEntity
  8
0
  6
Continuous
 62
     7
370
    25
100
AcDbCircle
 10
53.8264751608
 20
161.5160016178
 30
0.0
 40
1.500000000021379
100
AcDbArc
 50
150.0
 51
210.0
  0
ARC
  5
3DE
330
1F
100
AcDbEntity
  8
0
  6
Continuous
 62
     7
370
    25
100
AcDbCircle
 10
53.8264751608
 20
161.5160016178
 30
0.0
 40
1.500000000021385
100
AcDbArc
 50
270.0
 51
330.0
  0
ARC
  5
3DF
330
1F
100
AcDbEntity
  8
0
  6
Continuous
 62
     7
370
    25
100
AcDbCircle
 10
53.8264751608
 20
161.5160016178
 30
0.0
 40
1.500000000021379
100
AcDbArc
 50
90.0
 51
150.0
  0
ARC
  5
3E0
330
1F
100
AcDbEntity
  8
0
  6
Continuous
 62
     7
370
    25
100
AcDbCircle
 10
53.8264751608
 20
161.5160016178
 30
0.0
 40
1.500000000021392
100
AcDbArc
 50
330.0
 51
30.0
  0
ARC
  5
3E1
330
1F
100
AcDbEntity
  8
0
  6
Continuous
 62
     7
370
    25
100
AcDbCircle
 10
53.8264751608
 20
161.5160016178
 30
0.0
 40
1.500000000021379
100
AcDbArc
 50
210.0
 51
270.0
  0
CIRCLE
  5
3E2
330
1F
100
AcDbEntity
  8
0
  6
Continuous
 62
     7
370
    25
100
AcDbCircle
 10
53.9073542368
 20
188.4039569328
 30
0.0
 40
3.099999999999284
  0
CIRCLE
  5
3E3
330
1F
100
AcDbEntity
  8
0
  6
Continuous
 62
     7
370
    25
100
AcDbCircle
 10
53.9073542368
 20
188.4039569328
 30
0.0
 40
3.5
  0
LINE
  5
3E4
330
1F
100
AcDbEntity
  8
0
  6
Continuous
 62
     7
370
    25
100
AcDbLine
 10
53.041328833
 20
189.9039569328
 30
0.0
 11
52.1753034292
 21
188.4039569328
 31
0.0
  0
LINE
  5
3E5
330
1F
100
AcDbEntity
  8
0
  6
Continuous
 62
     7
370
    25
100
AcDbLine
 10
52.1753034292
 20
188.4039569328
 30
0.0
 11
53.041328833
 21
186.9039569328
 31
0.0
  0
LINE
  5
3E6
330
1F
100
AcDbEntity
  8
0
  6
Continuous
 62
     7
370
    25
100
AcDbLine
 10
53.041328833
 20
186.9039569328
 30
0.0
 11
54.7733796405
 21
186.9039569328
 31
0.0
  0
LINE
  5
3E7
330
1F
100
AcDbEntity
  8
0
  6
Continuous
 62
     7
370
    25
100
AcDbLine
 10
54.7733796405
 20
186.9039569328
 30
0.0
 11
55.6394050443
 21
188.4039569328
 31
0.0
  0
LINE
  5
3E8
330
1F
100
AcDbEntity
  8
0
  6
Continuous
 62
     7
370
    25
100
AcDbLine
 10
55.6394050443
 20
188.4039569328
 30
0.0
 11
54.7733796405
 21
189.9039569328
 31
0.0
  0
LINE
  5
3E9
330
1F
100
AcDbEntity
  8
0
  6
Continuous
 62
     7
370
    25
100
AcDbLine
 10
54.7733796405
 20
189.9039569328
 30
0.0
 11
53.041328833
 21
189.9039569328
 31
0.0
  0
ARC
  5
3EA
330
1F
100
AcDbEntity
  8
0
  6
Continuous
 62
     7
370
    25
100
AcDbCircle
 10
53.9073542368
 20
188.4039569328
 30
0.0
 40
1.500000000021394
100
AcDbArc
 50
30.0
 51
90.0
  0
ARC
  5
3EB
330
1F
100
AcDbEntity
  8
0
  6
Continuous
 62
     7
370
    25
100
AcDbCircle
 10
53.9073542368
 20
188.4039569328
 30
0.0
 40
1.500000000021373
100
AcDbArc
 50
150.0
 51
210.0
  0
ARC
  5
3EC
330
1F
100
AcDbEntity
  8
0
  6
Continuous
 62
     7
370
    25
100
AcDbCircle
 10
53.9073542368
 20
188.4039569328
 30
0.0
 40
1.500000000021402
100
AcDbArc
 50
270.0
 51
330.0
  0
ARC
  5
3ED
330
1F
100
AcDbEntity
  8
0
  6
Continuous
 62
     7
370
    25
100
AcDbCircle
 10
53.9073542368
 20
188.4039569328
 30
0.0
 40
1.500000000021373
100
AcDbArc
 50
90.0
 51
150.0
  0
ARC
  5
3EE
330
1F
100
AcDbEntity
  8
0
  6
Continuous
 62
     7
370
    25
100
AcDbCircle
 10
53.9073542368
 20
188.4039569328
 30
0.0
 40
1.500000000021394
100
AcDbArc
 50
330.0
 51
30.0
  0
ARC
  5
3EF
330
1F
100
AcDbEntity
  8
0
  6
Continuous
 62
     7
370
    25
100
AcDbCircle
 10
53.9073542368
 20
188.4039569328
 30
0.0
 40
1.500000000021402
100
AcDbArc
 50
210.0
 51
270.0
  0
CIRCLE
  5
3F0
330
1F
100
AcDbEntity
  8
0
  6
Continuous
 62
     7
370
    25
100
AcDbCircle
 10
67.3423830793
 20
174.9689280902
 30
0.0
 40
6.499999999999986
  0
CIRCLE
  5
3F1
330
1F
100
AcDbEntity
  8
0
  6
Continuous
 62
     7
370
    25
100
AcDbCircle
 10
67.3423830793
 20
174.9689280902
 30
0.0
 40
7.0
  0
CIRCLE
  5
3F2
330
1F
100
AcDbEntity
  8
0
  6
Continuous
 62
     7
370
    25
100
AcDbCircle
 10
67.3423830793
 20
174.9689280902
 30
0.0
 40
4.573499999999996
  0
CIRCLE
  5
3F3
330
1F
100
AcDbEntity
  8
0
  6
Continuous
 62
     7
370
    25
100
AcDbCircle
 10
67.3423830793
 20
174.9689280902
 30
0.0
 40
4.34249700411668
  0
ARC
  5
3F4
330
1F
100
AcDbEntity
  8
0
  6
Continuous
 62
     7
370
    25
100
AcDbCircle
 10
67.3423830793
 20
174.9689280902
 30
0.0
 40
23.0
100
AcDbArc
 50
0.0
 51
21.2710629342
  0
ARC
  5
3F5
330
1F
100
AcDbEntity
  8
0
  6
Continuous
 62
     7
370
    25
100
AcDbCircle
 10
67.3423830793
 20
174.9689280902
 30
0.0
 40
23.00000000000001
100
AcDbArc
 50
35.6698690233
 51
54.3301309767
  0
ARC
  5
3F6
330
1F
100
AcDbEntity
  8
0
  6
Continuous
 62
     7
370
    25
100
AcDbCircle
 10
67.3423830793
 20
174.9689280902
 30
0.0
 40
23.00000000000002
100
AcDbArc
 50
125.6698690233
 51
144.3301309767
  0
ARC
  5
3F7
330
1F
100
AcDbEntity
  8
0
  6
Continuous
 62
     7
370
    25
100
AcDbCircle
 10
67.3423830793
 20
174.9689280902
 30
0.0
 40
22.99999999999999
100
AcDbArc
 50
215.6698690233
 51
222.8292552764
  0
ARC
  5
3F8
330
1F
100
AcDbEntity
  8
0
  6
Continuous
 62
     7
370
    25
100
AcDbCircle
 10
67.3423830793
 20
174.9689280902
 30
0.0
 40
23.0
100
AcDbArc
 50
226.9031347532
 51
234.3301309767
  0
ARC
  5
3F9
330
1F
100
AcDbEntity
  8
0
  6
Continuous
 62
     7
370
    25
100
AcDbCircle
 10
67.3423830793
 20
174.9689280902
 30
0.0
 40
22.99999999999999
100
AcDbArc
 50
243.0376110025
 51
0.0
  0
ARC
  5
3FA
330
1F
100
AcDbEntity
  8
0
  6
Continuous
 62
     7
370
    25
100
AcDbCircle
 10
67.3423830793
 20
155.9689280902
 30
0.0
 40
1.649999999999993
100
AcDbArc
 50
245.3800226714
 51
297.0391945902
  0
CIRCLE
  5
3FB
330
1F
100
AcDbEntity
  8
0
  6
Continuous
 62
     7
370
    25
100
AcDbCircle
 10
86.3423830793
 20
174.9689280902
 30
0.0
 40
1.649999999999977
  0
ARC
  5
3FC
330
1F
100
AcDbEntity
  8
0
  6
Continuous
 62
     7
370
    25
100
AcDbCircle
 10
67.3423830793
 20
174.9689280902
 30
0.0
 40
23.49999999999999
100
AcDbArc
 50
240.7317616747
 51
0.0
  0
ARC
  5
3FD
330
1F
100
AcDbEntity
  8
0
  6
Continuous
 62
     7
370
    25
100
AcDbCircle
 10
67.3423830793
 20
174.9689280902
 30
0.0
 40
23.50000000000001
100
AcDbArc
 50
217.6626093016
 51
232.3373906984
  0
ARC
  5
3FE
330
1F
100
AcDbEntity
  8
0
  6
Continuous
 62
     7
370
    25
100
AcDbCircle
 10
67.3423830793
 20
174.9689280902
 30
0.0
 40
23.50000000000004
100
AcDbArc
 50
127.6626093016
 51
142.3373906984
  0
ARC
  5
3FF
330
1F
100
AcDbEntity
  8
0
  6
Continuous
 62
     7
370
    25
100
AcDbCircle
 10
67.3423830793
 20
174.9689280902
 30
0.0
 40
23.5
100
AcDbArc
 50
37.6626093016
 51
52.3373906984
  0
ARC
  5
400
330
1F
100
AcDbEntity
  8
0
  6
Continuous
 62
     7
370
    25
100
AcDbCircle
 10
67.3423830793
 20
174.9689280902
 30
0.0
 40
23.50000000000001
100
AcDbArc
 50
0.0
 51
21.7211949964
  0
CIRCLE
  5
401
330
1F
100
AcDbEntity
  8
0
  6
Continuous
 62
     7
370
    25
100
AcDbCircle
 10
67.3423830793
 20
174.9689280902
 30
0.0
 40
3.949999999999989
  0
LINE
  5
402
330
1F
100
AcDbEntity
  8
0
  6
Continuous
 62
     7
370
    25
100
AcDbLine
 10
63.8471175075
 20
194.1509132074
 30
0.0
 11
63.5467432891
 21
194.1509132074
 31
0.0
  0
LINE
  5
403
330
1F
100
AcDbEntity
  8
0
  6
Continuous
 62
     7
370
    25
100
AcDbLine
 10
63.5872141985
 20
194.5509132074
 30
0.0
 11
63.8911089199
 21
194.5509132074
 31
0.0
  0
ARC
  5
404
330
1F
100
AcDbEntity
  8
0
  6
Continuous
 62
     7
370
    25
100
AcDbCircle
 10
67.3423830793
 20
193.9689280902
 30
0.0
 40
3.800000000000035
100
AcDbArc
 50
177.2550081497
 51
171.1902512933
  0
LINE
  5
405
330
1F
100
AcDbEntity
  8
0
  6
Continuous
 62
     7
370
    25
100
AcDbLine
 10
63.5486422459
 20
194.1869429731
 30
0.0
 11
63.8491797484
 21
194.1869429731
 31
0.0
  0
ARC
  5
406
330
1F
100
AcDbEntity
  8
0
  6
Continuous
 62
     7
370
    25
100
AcDbCircle
 10
67.3423830793
 20
193.9689280902
 30
0.0
 40
3.800000000000051
100
AcDbArc
 50
171.1902512933
 51
176.7110011727
  0
LINE
  5
407
330
1F
100
AcDbEntity
  8
0
  6
Continuous
 62
     7
370
    25
100
AcDbLine
 10
44.8471175075
 20
175.1509132074
 30
0.0
 11
44.5467432891
 21
175.1509132074
 31
0.0
  0
LINE
  5
408
330
1F
100
AcDbEntity
  8
0
  6
Continuous
 62
     7
370
    25
100
AcDbLine
 10
44.5872141985
 20
175.5509132074
 30
0.0
 11
44.8911089199
 21
175.5509132074
 31
0.0
  0
ARC
  5
409
330
1F
100
AcDbEntity
  8
0
  6
Continuous
 62
     7
370
    25
100
AcDbCircle
 10
48.3423830793
 20
174.9689280902
 30
0.0
 40
3.800000000000045
100
AcDbArc
 50
177.2550081497
 51
171.1902512933
  0
LINE
  5
40A
330
1F
100
AcDbEntity
  8
0
  6
Continuous
 62
     7
370
    25
100
AcDbLine
 10
44.5486422459
 20
175.1869429731
 30
0.0
 11
44.8491797484
 21
175.1869429731
 31
0.0
  0
ARC
  5
40B
330
1F
100
AcDbEntity
  8
0
  6
Continuous
 62
     7
370
    25
100
AcDbCircle
 10
48.3423830793
 20
174.9689280902
 30
0.0
 40
3.800000000000048
100
AcDbArc
 50
171.1902512933
 51
176.7110011727
  0
ARC
  5
40C
330
1F
100
AcDbEntity
  8
0
  6
Continuous
 62
     7
370
    25
100
AcDbCircle
 10
80.7774119219
 20
161.5338992477
 30
0.0
 40
3.800000000000035
100
AcDbArc
 50
3.9615594909
 51
357.8968026345
  0
LINE
  5
40D
330
1F
100
AcDbEntity
  8
0
  6
Continuous
 62
     7
370
    25
100
AcDbLine
 10
84.2700134532
 20
161.7613515355
 30
0.0
 11
84.5683323018
 21
161.7964305277
 31
0.0
  0
LINE
  5
40E
330
1F
100
AcDbEntity
  8
0
  6
Continuous
 62
     7
370
    25
100
AcDbLine
 10
84.5748520417
 20
161.3944412399
 30
0.0
 11
84.2730367799
 21
161.3589511082
 31
0.0
  0
LINE
  5
40F
330
1F
100
AcDbEntity
  8
0
  6
Continuous
 62
     7
370
    25
100
AcDbLine
 10
84.5706540498
 20
161.7604255344
 30
0.0
 11
84.2721730345
 21
161.7253274732
 31
0.0
  0
ARC
  5
410
330
1F
100
AcDbEntity
  8
0
  6
Continuous
 62
     7
370
    25
100
AcDbCircle
 10
80.7774119219
 20
161.5338992477
 30
0.0
 40
3.800000000000035
100
AcDbArc
 50
357.8968026345
 51
3.4175525139
  0
LINE
  5
411
330
1F
100
AcDbEntity
  8
0
  6
Continuous
 62
     7
370
    25
100
AcDbLine
 10
80.1525257469
 20
184.9601919483
 30
0.0
 11
80.1143370476
 21
184.6622552195
 31
0.0
  0
LINE
  5
412
330
1F
100
AcDbEntity
  8
0
  6
Continuous
 62
     7
370
    25
100
AcDbLine
 10
79.7227283379
 20
184.7532525435
 30
0.0
 11
79.7613646236
 21
185.0546812069
 31
0.0
  0
ARC
  5
413
330
1F
100
AcDbEntity
  8
0
  6
Continuous
 62
     7
370
    25
100
AcDbCircle
 10
80.7774119219
 20
188.4039569328
 30
0.0
 40
3.800000000000082
100
AcDbArc
 50
259.9508222253
 51
253.8860653689
  0
LINE
  5
414
330
1F
100
AcDbEntity
  8
0
  6
Continuous
 62
     7
370
    25
100
AcDbLine
 10
80.0788410856
 20
184.6687194856
 30
0.0
 11
80.1170505443
 21
184.9668181734
 31
0.0
  0
ARC
  5
415
330
1F
100
AcDbEntity
  8
0
  6
Continuous
 62
     7
370
    25
100
AcDbCircle
 10
80.7774119219
 20
188.4039569328
 30
0.0
 40
3.800000000000059
100
AcDbArc
 50
253.8860653689
 51
259.4068152483
  0
ARC
  5
416
330
1F
100
AcDbEntity
  8
0
  6
Continuous
 62
     7
370
    25
100
AcDbCircle
 10
53.8264751608
 20
161.5160016178
 30
0.0
 40
3.800000000000039
100
AcDbArc
 50
356.2044688967
 51
350.1397120403
  0
LINE
  5
417
330
1F
100
AcDbEntity
  8
0
  6
Continuous
 62
     7
370
    25
100
AcDbLine
 10
57.3178166425
 20
161.2699636974
 30
0.0
 11
57.6181403716
 21
161.2644565339
 31
0.0
  0
LINE
  5
418
330
1F
100
AcDbEntity
  8
0
  6
Continuous
 62
     7
370
    25
100
AcDbLine
 10
57.5703425283
 20
160.8652657766
 30
0.0
 11
57.266498888
 21
160.8708374862
 31
0.0
  0
LINE
  5
419
330
1F
100
AcDbEntity
  8
0
  6
Continuous
 62
     7
370
    25
100
AcDbLine
 10
57.6155811519
 20
161.2284676404
 30
0.0
 11
57.3150941662
 21
161.2339777977
 31
0.0
  0
ARC
  5
41A
330
1F
100
AcDbEntity
  8
0
  6
Continuous
 62
     7
370
    25
100
AcDbCircle
 10
53.8264751608
 20
161.5160016178
 30
0.0
 40
3.800000000000047
100
AcDbArc
 50
350.1397120403
 51
355.6604619197
  0
LINE
  5
41B
330
1F
100
AcDbEntity
  8
0
  6
Continuous
 62
     7
370
    25
100
AcDbLine
 10
52.7505434388
 20
185.1006572525
 30
0.0
 11
52.6661392747
 21
184.8123854915
 31
0.0
  0
LINE
  5
41C
330
1F
100
AcDbEntity
  8
0
  6
Continuous
 62
     7
370
    25
100
AcDbLine
 10
52.293627973
 20
184.9636244567
 30
0.0
 11
52.3790213869
 21
185.2552748752
 31
0.0
  0
ARC
  5
41D
330
1F
100
AcDbEntity
  8
0
  6
Continuous
 62
     7
370
    25
100
AcDbCircle
 10
53.9073542368
 20
188.4039569328
 30
0.0
 40
3.80000000000004
100
AcDbArc
 50
250.9353082681
 51
244.8705514118
  0
LINE
  5
41E
330
1F
100
AcDbEntity
  8
0
  6
Continuous
 62
     7
370
    25
100
AcDbLine
 10
52.6320947944
 20
184.8243321822
 30
0.0
 11
52.7165448409
 21
185.1127606483
 31
0.0
  0
ARC
  5
41F
330
1F
100
AcDbEntity
  8
0
  6
Continuous
 62
     7
370
    25
100
AcDbCircle
 10
53.9073542368
 20
188.4039569328
 30
0.0
 40
3.80000000000006
100
AcDbArc
 50
244.8705514118
 51
250.3913012912
  0
SPLINE
  5
420
330
1F
100
AcDbEntity
  8
0
  6
Continuous
 62
     7
370
    25
100
AcDbSpline
210
0.0
220
0.0
230
1.0
 70
     8
 71
     3
 72
    13
 73
     9
 74
     0
 42
0.000000001
 43
0.00000001
 40
0.0
 40
0.0
 40
0.0
 40
0.0
 40
0.1268230747973237
 40
0.2538012478645079
 40
0.4394007242008277
 40
0.625423109552012
 40
0.8125599864038194
 40
1.0
 40
1.0
 40
1.0
 40
1.0
 10
92.56988307930658
 20
178.2948637166478
 30
0.0
 10
92.5713305481368
 20
178.1697870160709
 30
0.0
 10
92.57422725597915
 20
177.9194806523754
 30
0.0
 10
92.60106165551659
 20
177.4866757775877
 30
0.0
 10
92.6535121303914
 20
176.9969489617258
 30
0.0
 10
92.7426693490087
 20
176.4513552387633
 30
0.0
 10
92.85756900261477
 20
175.9076033119429
 30
0.0
 10
92.95442739322387
 20
175.5481256350825
 30
0.0
 10
93.00289578119877
 20
175.368241338009
 30
0.0
  0
SPLINE
  5
421
330
1F
100
AcDbEntity
  8
0
  6
Continuous
 62
     7
370
    25
100
AcDbSpline
210
0.0
220
0.0
230
1.0
 70
     8
 71
     3
 72
     9
 73
     5
 74
     0
 42
0.000000001
 43
0.00000001
 40
0.0
 40
0.0
 40
0.0
 40
0.0
 40
0.4965134544262688
 40
1.0
 40
1.0
 40
1.0
 40
1.0
 10
93.00289578119882
 20
181.2214860952866
 30
0.0
 10
92.88037768464065
 20
180.7429618788804
 30
0.0
 10
92.63362083351012
 20
179.7791929978152
 30
0.0
 10
92.5912275348197
 20
178.7919348906261
 30
0.0
 10
92.56988307930658
 20
178.2948637166478
 30
0.0
  0
LINE
  5
422
330
1F
100
AcDbEntity
  8
0
  6
Continuous
 62
     7
370
    25
100
AcDbLine
 10
93.0028957812
 20
181.2214860953
 30
0.0
 11
97.1368703774
 21
181.2214860953
 31
0.0
  0
SPLINE
  5
423
330
1F
100
AcDbEntity
  8
0
  6
Continuous
 62
     7
370
    25
100
AcDbSpline
210
0.0
220
0.0
230
1.0
 70
     8
 71
     3
 72
    13
 73
     9
 74
     0
 42
0.000000001
 43
0.00000001
 40
0.0
 40
0.0
 40
0.0
 40
0.0
 40
0.1268230747973239
 40
0.2538012478645082
 40
0.4394007242008284
 40
0.6254231095520111
 40
0.8125599864038199
 40
1.0
 40
1.0
 40
1.0
 40
1.0
 10
97.56988307930658
 20
178.2948637166477
 30
0.0
 10
97.56843561047634
 20
178.4199404172247
 30
0.0
 10
97.56553890263402
 20
178.6702467809202
 30
0.0
 10
97.5387045030966
 20
179.1030516557078
 30
0.0
 10
97.48625402822177
 20
179.5927784715697
 30
0.0
 10
97.39709680960446
 20
180.1383721945322
 30
0.0
 10
97.2821971559984
 20
180.6821241213526
 30
0.0
 10
97.18533876538932
 20
181.041601798213
 30
0.0
 10
97.1368703774144
 20
181.2214860952866
 30
0.0
  0
SPLINE
  5
424
330
1F
100
AcDbEntity
  8
0
  6
Continuous
 62
     7
370
    25
100
AcDbSpline
210
0.0
220
0.0
230
1.0
 70
     8
 71
     3
 72
     9
 73
     5
 74
     0
 42
0.000000001
 43
0.00000001
 40
0.0
 40
0.0
 40
0.0
 40
0.0
 40
0.4965134544262719
 40
1.0
 40
1.0
 40
1.0
 40
1.0
 10
97.13687037741435
 20
175.368241338009
 30
0.0
 10
97.25938847397254
 20
175.8467655544152
 30
0.0
 10
97.50614532510308
 20
176.8105344354804
 30
0.0
 10
97.54853862379348
 20
177.7977925426694
 30
0.0
 10
97.56988307930658
 20
178.2948637166477
 30
0.0
  0
LINE
  5
425
330
1F
100
AcDbEntity
  8
0
  6
Continuous
 62
     7
370
    25
100
AcDbLine
 10
97.1368703774
 20
175.368241338
 30
0.0
 11
93.0028957812
 21
175.368241338
 31
0.0
  0
LINE
  5
426
330
1F
100
AcDbEntity
  8
0
  6
Continuous
 62
     7
370
    25
100
AcDbLine
 10
93.0028957812
 20
175.368241338
 30
0.0
 11
93.0028957812
 21
174.1296032554
 31
0.0
  0
SPLINE
  5
427
330
1F
100
AcDbEntity
  8
0
  6
Continuous
 62
     7
370
    25
100
AcDbSpline
210
0.0
220
0.0
230
1.0
 70
     8
 71
     3
 72
    10
 73
     6
 74
     0
 42
0.000000001
 43
0.00000001
 40
0.0
 40
0.0
 40
0.0
 40
0.0
 40
0.2372861409041385
 40
0.6168892495779059
 40
1.0
 40
1.0
 40
1.0
 40
1.0
 10
93.00289578119839
 20
174.1296032553859
 30
0.0
 10
92.94260629275719
 20
173.9091409302578
 30
0.0
 10
92.78586752520756
 20
173.3359897222257
 30
0.0
 10
92.61045481924849
 20
172.3911323262127
 30
0.0
 10
92.58344839253685
 20
171.6632951771014
 30
0.0
 10
92.56988307930655
 20
171.2977029788534
 30
0.0
  0
LINE
  5
428
330
1F
100
AcDbEntity
  8
0
  6
Continuous
 62
     7
370
    25
100
AcDbLine
 10
92.5698830793
 20
171.2977029789
 30
0.0
 11
92.5698830793
 21
178.2948637166
 31
0.0
  0
SPLINE
  5
429
330
1F
100
AcDbEntity
  8
0
  6
Continuous
 62
     7
370
    25
100
AcDbSpline
210
0.0
220
0.0
230
1.0
 70
     8
 71
     3
 72
    13
 73
     9
 74
     0
 42
0.000000001
 43
0.00000001
 40
0.0
 40
0.0
 40
0.0
 40
0.0
 40
0.1894878384382392
 40
0.3794858690540519
 40
0.5709115750897114
 40
0.762755127881762
 40
0.8813426172843926
 40
1.0
 40
1.0
 40
1.0
 40
1.0
 10
97.56988307930656
 20
171.2977029788534
 30
0.0
 10
97.56665166563829
 20
171.4785419488097
 30
0.0
 10
97.56018013778571
 20
171.8407067939963
 30
0.0
 10
97.50821224894172
 20
172.3840626479317
 30
0.0
 10
97.42680267890296
 20
172.9268536426283
 30
0.0
 10
97.32899119032918
 20
173.3986230063221
 30
0.0
 10
97.23032478017623
 20
173.7994197924462
 30
0.0
 10
97.16802796263461
 20
174.0195204868834
 30
0.0
 10
97.13687037741475
 20
174.1296032553859
 30
0.0
  0
LINE
  5
42A
330
1F
100
AcDbEntity
  8
0
  6
Continuous
 62
     7
370
    25
100
AcDbLine
 10
97.1368703774
 20
174.1296032554
 30
0.0
 11
97.1368703774
 21
175.368241338
 31
0.0
  0
LINE
  5
42B
330
1F
100
AcDbEntity
  8
0
  6
Continuous
 62
     7
370
    25
100
AcDbLine
 10
97.5698830793
 20
178.2948637166
 30
0.0
 11
97.5698830793
 21
171.2977029789
 31
0.0
  0
LINE
  5
42C
330
1F
100
AcDbEntity
  8
0
  6
Continuous
 62
     7
370
    25
100
AcDbLine
 10
101.2983830793
 20
168.3904280902
 30
0.0
 11
101.2983830793
 21
181.5474280902
 31
0.0
  0
LINE
  5
42D
330
1F
100
AcDbEntity
  8
0
  6
Continuous
 62
     7
370
    25
100
AcDbLine
 10
107.2413830793
 20
168.3904280902
 30
0.0
 11
107.2413830793
 21
181.5474280902
 31
0.0
  0
LINE
  5
42E
330
1F
100
AcDbEntity
  8
0
  6
Continuous
 62
     7
370
    25
100
AcDbLine
 10
108.5698830793
 20
169.7189280902
 30
0.0
 11
108.5698830793
 21
180.2189280902
 31
0.0
  0
LINE
  5
42F
330
1F
100
AcDbEntity
  8
0
  6
Continuous
 62
     7
370
    25
100
AcDbLine
 10
99.7198830793
 20
169.9689280902
 30
0.0
 11
99.7198830793
 21
179.9689280902
 31
0.0
  0
LINE
  5
430
330
1F
100
AcDbEntity
  8
0
  6
Continuous
 62
     7
370
    25
100
AcDbLine
 10
93.0028957812
 20
174.1296032554
 30
0.0
 11
97.1368703774
 21
174.1296032554
 31
0.0
  0
SPLINE
  5
431
330
1F
100
AcDbEntity
  8
0
  6
Continuous
 62
     7
370
    25
100
AcDbSpline
210
0.0
220
0.0
230
1.0
 70
     8
 71
     3
 72
     9
 73
     5
 74
     0
 42
0.000000001
 43
0.00000001
 40
0.0
 40
0.0
 40
0.0
 40
0.0
 40
0.4436555282908401
 40
0.9999999999999999
 40
0.9999999999999999
 40
0.9999999999999999
 40
0.9999999999999999
 10
92.56988307930655
 20
171.2977029788534
 30
0.0
 10
92.58646038100353
 20
170.8739327963921
 30
0.0
 10
92.62382563544053
 20
169.918754385579
 30
0.0
 10
92.86739006005787
 20
168.9851874859182
 30
0.0
 10
93.00289578119875
 20
168.4658027023213
 30
0.0
  0
SPLINE
  5
432
330
1F
100
AcDbEntity
  8
0
  6
Continuous
 62
     7
370
    25
100
AcDbSpline
210
0.0
220
0.0
230
1.0
 70
     8
 71
     3
 72
     9
 73
     5
 74
     0
 42
0.000000001
 43
0.00000001
 40
0.0
 40
0.0
 40
0.0
 40
0.0
 40
0.5563444717091586
 40
1.0
 40
1.0
 40
1.0
 40
1.0
 10
97.13687037741433
 20
168.4658027023212
 30
0.0
 10
97.27237609855516
 20
168.9851874859182
 30
0.0
 10
97.51594052317245
 20
169.9187543855789
 30
0.0
 10
97.55330577760955
 20
170.8739327963921
 30
0.0
 10
97.56988307930656
 20
171.2977029788534
 30
0.0
  0
LINE
  5
433
330
1F
100
AcDbEntity
  8
0
  6
Continuous
 62
     7
370
    25
100
AcDbLine
 10
97.1368703774
 20
168.4658027023
 30
0.0
 11
93.0028957812
 21
168.4658027023
 31
0.0
  0
SPLINE
  5
434
330
1F
100
AcDbEntity
  8
0
  6
Continuous
 62
     7
370
    25
100
AcDbSpline
210
0.0
220
0.0
230
1.0
 70
     8
 71
     3
 72
    10
 73
     6
 74
     0
 42
0.000000001
 43
0.00000001
 40
0.0
 40
0.0
 40
0.0
 40
0.0
 40
0.2538172255998947
 40
0.6254155652320266
 40
1.0
 40
1.0
 40
1.0
 40
1.0
 10
92.5698830793066
 20
181.9660888280123
 30
0.0
 10
92.57602405175103
 20
181.9579890824871
 30
0.0
 10
92.59115564789595
 20
181.9380309929056
 30
0.0
 10
92.72652236409571
 20
181.9062666094686
 30
0.0
 10
92.91052585871752
 20
181.8830310153771
 30
0.0
 10
93.00289578119884
 20
181.8713667259056
 30
0.0
  0
LINE
  5
435
330
1F
100
AcDbEntity
  8
0
  6
Continuous
 62
     7
370
    25
100
AcDbLine
 10
93.0028957812
 20
181.8713667259
 30
0.0
 11
93.0028957812
 21
181.2214860953
 31
0.0
  0
LINE
  5
436
330
1F
100
AcDbEntity
  8
0
  6
Continuous
 62
     7
370
    25
100
AcDbLine
 10
92.5698830793
 20
178.2948637166
 30
0.0
 11
92.5698830793
 21
181.966088828
 31
0.0
  0
LINE
  5
437
330
1F
100
AcDbEntity
  8
0
  6
Continuous
 62
     7
370
    25
100
AcDbLine
 10
97.1368703774
 20
181.2214860953
 30
0.0
 11
97.1368703774
 21
181.8713667259
 31
0.0
  0
SPLINE
  5
438
330
1F
100
AcDbEntity
  8
0
  6
Continuous
 62
     7
370
    25
100
AcDbSpline
210
0.0
220
0.0
230
1.0
 70
     8
 71
     3
 72
    11
 73
     7
 74
     0
 42
0.000000001
 43
0.00000001
 40
0.0
 40
0.0
 40
0.0
 40
0.0
 40
0.247883750318827
 40
0.49646277192351
 40
0.7476697718984352
 40
0.9999999999999999
 40
0.9999999999999999
 40
0.9999999999999999
 40
0.9999999999999999
 10
97.13687037741443
 20
181.8713667259055
 30
0.0
 10
97.2001415219276
 20
181.8790722651181
 30
0.0
 10
97.32686127563225
 20
181.8945049562552
 30
0.0
 10
97.46191070524006
 20
181.9180699658019
 30
0.0
 10
97.5527942049712
 20
181.9419593393281
 30
0.0
 10
97.5641783231039
 20
181.9580337128807
 30
0.0
 10
97.5698830793066
 20
181.9660888280122
 30
0.0
  0
LINE
  5
439
330
1F
100
AcDbEntity
  8
0
  6
Continuous
 62
     7
370
    25
100
AcDbLine
 10
97.5698830793
 20
181.966088828
 30
0.0
 11
97.5698830793
 21
178.2948637166
 31
0.0
  0
SPLINE
  5
43A
330
1F
100
AcDbEntity
  8
0
  6
Continuous
 62
     7
370
    25
100
AcDbSpline
210
0.0
220
0.0
230
1.0
 70
     8
 71
     3
 72
    10
 73
     6
 74
     0
 42
0.000000001
 43
0.00000001
 40
0.0
 40
0.0
 40
0.0
 40
0.0
 40
0.2538172255998938
 40
0.6254155652320277
 40
1.0
 40
1.0
 40
1.0
 40
1.0
 10
97.5698830793065
 20
167.9717673524234
 30
0.0
 10
97.56374210686208
 20
167.9636676068982
 30
0.0
 10
97.54861051071718
 20
167.9437095173167
 30
0.0
 10
97.41324379451743
 20
167.9119451338797
 30
0.0
 10
97.22924029989562
 20
167.8887095397882
 30
0.0
 10
97.1368703774143
 20
167.8770452503167
 30
0.0
  0
LINE
  5
43B
330
1F
100
AcDbEntity
  8
0
  6
Continuous
 62
     7
370
    25
100
AcDbLine
 10
97.1368703774
 20
167.8770452503
 30
0.0
 11
97.1368703774
 21
168.4658027023
 31
0.0
  0
LINE
  5
43C
330
1F
100
AcDbEntity
  8
0
  6
Continuous
 62
     7
370
    25
100
AcDbLine
 10
97.5698830793
 20
171.2977029789
 30
0.0
 11
97.5698830793
 21
167.9717673524
 31
0.0
  0
LINE
  5
43D
330
1F
100
AcDbEntity
  8
0
  6
Continuous
 62
     7
370
    25
100
AcDbLine
 10
93.0028957812
 20
168.4658027023
 30
0.0
 11
93.0028957812
 21
167.8770452503
 31
0.0
  0
SPLINE
  5
43E
330
1F
100
AcDbEntity
  8
0
  6
Continuous
 62
     7
370
    25
100
AcDbSpline
210
0.0
220
0.0
230
1.0
 70
     8
 71
     3
 72
     9
 73
     5
 74
     0
 42
0.000000001
 43
0.00000001
 40
0.0
 40
0.0
 40
0.0
 40
0.0
 40
0.4965134544262702
 40
1.0
 40
1.0
 40
1.0
 40
1.0
 10
93.00289578119872
 20
167.8770452503167
 30
0.0
 10
92.88037768464055
 20
167.8925330084975
 30
0.0
 10
92.63362083351
 20
167.923726036688
 30
0.0
 10
92.59122753481961
 20
167.9556793094837
 30
0.0
 10
92.56988307930649
 20
167.9717673524234
 30
0.0
  0
LINE
  5
43F
330
1F
100
AcDbEntity
  8
0
  6
Continuous
 62
     7
370
    25
100
AcDbLine
 10
92.5698830793
 20
167.9717673524
 30
0.0
 11
92.5698830793
 21
171.2977029789
 31
0.0
  0
LINE
  5
440
330
1F
100
AcDbEntity
  8
0
  6
Continuous
 62
     7
370
    25
100
AcDbLine
 10
97.1368703774
 20
181.8713667259
 30
0.0
 11
93.0028957812
 21
181.8713667259
 31
0.0
  0
LINE
  5
441
330
1F
100
AcDbEntity
  8
0
  6
Continuous
 62
     7
370
    25
100
AcDbLine
 10
93.0028957812
 20
167.8770452503
 30
0.0
 11
97.1368703774
 21
167.8770452503
 31
0.0
  0
SPLINE
  5
442
330
1F
100
AcDbEntity
  8
0
  6
Continuous
 62
     7
370
    25
100
AcDbSpline
210
0.0
220
0.0
230
1.0
 70
     8
 71
     3
 72
     9
 73
     5
 74
     0
 42
0.000000001
 43
0.00000001
 40
0.0
 40
0.0
 40
0.0
 40
0.0
 40
0.4965134544262708
 40
0.9999999999999999
 40
0.9999999999999999
 40
0.9999999999999999
 40
0.9999999999999999
 10
93.00289578119883
 20
182.060810930119
 30
0.0
 10
92.88037768464064
 20
182.0453231719382
 30
0.0
 10
92.63362083351005
 20
182.0141301437478
 30
0.0
 10
92.59122753481968
 20
181.982176870952
 30
0.0
 10
92.5698830793066
 20
181.9660888280123
 30
0.0
  0
LINE
  5
443
330
1F
100
AcDbEntity
  8
0
  6
Continuous
 62
     7
370
    25
100
AcDbLine
 10
93.0028957812
 20
182.0608109301
 30
0.0
 11
97.1368703774
 21
182.0608109301
 31
0.0
  0
SPLINE
  5
444
330
1F
100
AcDbEntity
  8
0
  6
Continuous
 62
     7
370
    25
100
AcDbSpline
210
0.0
220
0.0
230
1.0
 70
     8
 71
     3
 72
    10
 73
     6
 74
     0
 42
0.000000001
 43
0.00000001
 40
0.0
 40
0.0
 40
0.0
 40
0.0
 40
0.2538172255998955
 40
0.6254155652320242
 40
1.0
 40
1.0
 40
1.0
 40
1.0
 10
97.5698830793066
 20
181.9660888280122
 30
0.0
 10
97.56374210686216
 20
181.9741885735374
 30
0.0
 10
97.54861051071722
 20
181.9941466631189
 30
0.0
 10
97.41324379451753
 20
182.0259110465559
 30
0.0
 10
97.22924029989572
 20
182.0491466406474
 30
0.0
 10
97.1368703774144
 20
182.0608109301189
 30
0.0
  0
SPLINE
  5
445
330
1F
100
AcDbEntity
  8
0
  6
Continuous
 62
     7
370
    25
100
AcDbSpline
210
0.0
220
0.0
230
1.0
 70
     8
 71
     3
 72
    10
 73
     6
 74
     0
 42
0.000000001
 43
0.00000001
 40
0.0
 40
0.0
 40
0.0
 40
0.0
 40
0.2538172255998948
 40
0.6254155652320267
 40
1.0
 40
1.0
 40
1.0
 40
1.0
 10
67.18795371304603
 20
142.2414280902179
 30
0.0
 10
66.90361173710853
 20
142.2352871177735
 30
0.0
 10
66.20298199387561
 20
142.2201555216286
 30
0.0
 10
65.08789170827613
 20
142.0847888054288
 30
0.0
 10
64.27220500360886
 20
141.900785310807
 30
0.0
 10
63.86272953231943
 20
141.8084153883257
 30
0.0
  0
SPLINE
  5
446
330
1F
100
AcDbEntity
  8
0
  6
Continuous
 62
     7
370
    25
100
AcDbSpline
210
0.0
220
0.0
230
1.0
 70
     8
 71
     3
 72
     9
 73
     5
 74
     0
 42
0.000000001
 43
0.00000001
 40
0.0
 40
0.0
 40
0.0
 40
0.0
 40
0.4965134544262715
 40
1.0
 40
1.0
 40
1.0
 40
1.0
 10
70.51317789377264
 20
141.8084153883257
 30
0.0
 10
69.96947936024428
 20
141.9309334848839
 30
0.0
 10
68.87444652944897
 20
142.1776903360145
 30
0.0
 10
67.75272527336725
 20
142.2200836347048
 30
0.0
 10
67.18795371304603
 20
142.2414280902179
 30
0.0
  0
LINE
  5
447
330
1F
100
AcDbEntity
  8
0
  6
Continuous
 62
     7
370
    25
100
AcDbLine
 10
70.5131778938
 20
141.8084153883
 30
0.0
 11
70.5131778938
 21
137.6744407921
 31
0.0
  0
SPLINE
  5
448
330
1F
100
AcDbEntity
  8
0
  6
Continuous
 62
     7
370
    25
100
AcDbSpline
210
0.0
220
0.0
230
1.0
 70
     8
 71
     3
 72
    10
 73
     6
 74
     0
 42
0.000000001
 43
0.00000001
 40
0.0
 40
0.0
 40
0.0
 40
0.0
 40
0.2538172255998953
 40
0.625415565232024
 40
1.0
 40
1.0
 40
1.0
 40
1.0
 10
67.18795371304604
 20
137.2414280902179
 30
0.0
 10
67.47229568898355
 20
137.2475690626624
 30
0.0
 10
68.17292543221646
 20
137.2627006588073
 30
0.0
 10
69.28801571781595
 20
137.398067375007
 30
0.0
 10
70.10370242248322
 20
137.5820708696288
 30
0.0
 10
70.51317789377265
 20
137.6744407921101
 30
0.0
  0
SPLINE
  5
449
330
1F
100
AcDbEntity
  8
0
  6
Continuous
 62
     7
370
    25
100
AcDbSpline
210
0.0
220
0.0
230
1.0
 70
     8
 71
     3
 72
    11
 73
     7
 74
     0
 42
0.000000001
 43
0.00000001
 40
0.0
 40
0.0
 40
0.0
 40
0.0
 40
0.2478837503188272
 40
0.4964627719235097
 40
0.7476697718984352
 40
1.0
 40
1.0
 40
1.0
 40
1.0
 10
63.86272953231943
 20
137.6744407921101
 30
0.0
 10
64.13323287573203
 20
137.6111696475969
 30
0.0
 10
64.67499827791136
 20
137.4844498938923
 30
0.0
 10
65.50224912877786
 20
137.3494004642845
 30
0.0
 10
66.34088679353654
 20
137.2585169645533
 30
0.0
 10
66.90517848933438
 20
137.2471328464206
 30
0.0
 10
67.18795371304604
 20
137.2414280902179
 30
0.0
  0
LINE
  5
44A
330
1F
100
AcDbEntity
  8
0
  6
Continuous
 62
     7
370
    25
100
AcDbLine
 10
63.8627295323
 20
137.6744407921
 30
0.0
 11
63.8627295323
 21
141.8084153883
 31
0.0
  0
LINE
  5
44B
330
1F
100
AcDbEntity
  8
0
  6
Continuous
 62
     7
370
    25
100
AcDbLine
 10
71.6163028828
 20
144.3914280902
 30
0.0
 11
72.3423830793
 21
144.3914280902
 31
0.0
  0
LINE
  5
44C
330
1F
100
AcDbEntity
  8
0
  6
Continuous
 62
     7
370
    25
100
AcDbLine
 10
62.3423830793
 20
144.3914280902
 30
0.0
 11
71.6163028828
 21
144.3914280902
 31
0.0
  0
LINE
  5
44D
330
1F
100
AcDbEntity
  8
0
  6
Continuous
 62
     7
370
    25
100
AcDbLine
 10
72.9655793647
 20
133.5129280902
 30
0.0
 11
73.9208830793
 21
133.5129280902
 31
0.0
  0
LINE
  5
44E
330
1F
100
AcDbEntity
  8
0
  6
Continuous
 62
     7
370
    25
100
AcDbLine
 10
60.7638830793
 20
133.5129280902
 30
0.0
 11
72.9655793647
 21
133.5129280902
 31
0.0
  0
LINE
  5
44F
330
1F
100
AcDbEntity
  8
0
  6
Continuous
 62
     7
370
    25
100
AcDbLine
 10
72.9655793647
 20
127.5699280902
 30
0.0
 11
73.9208830793
 21
127.5699280902
 31
0.0
  0
LINE
  5
450
330
1F
100
AcDbEntity
  8
0
  6
Continuous
 62
     7
370
    25
100
AcDbLine
 10
60.7638830793
 20
127.5699280902
 30
0.0
 11
72.9655793647
 21
127.5699280902
 31
0.0
  0
LINE
  5
451
330
1F
100
AcDbEntity
  8
0
  6
Continuous
 62
     7
370
    25
100
AcDbLine
 10
71.6163028828
 20
135.0914280902
 30
0.0
 11
72.3423830793
 21
135.0914280902
 31
0.0
  0
LINE
  5
452
330
1F
100
AcDbEntity
  8
0
  6
Continuous
 62
     7
370
    25
100
AcDbLine
 10
62.3423830793
 20
135.0914280902
 30
0.0
 11
71.6163028828
 21
135.0914280902
 31
0.0
  0
LINE
  5
453
330
1F
100
AcDbEntity
  8
0
  6
Continuous
 62
     7
370
    25
100
AcDbLine
 10
71.8299988729
 20
126.2414280902
 30
0.0
 11
72.5923830793
 21
126.2414280902
 31
0.0
  0
LINE
  5
454
330
1F
100
AcDbEntity
  8
0
  6
Continuous
 62
     7
370
    25
100
AcDbLine
 10
62.0923830793
 20
126.2414280902
 30
0.0
 11
71.8299988729
 21
126.2414280902
 31
0.0
  0
SPLINE
  5
455
330
1F
100
AcDbEntity
  8
0
  6
Continuous
 62
     7
370
    25
100
AcDbSpline
210
0.0
220
0.0
230
1.0
 70
     8
 71
     3
 72
    10
 73
     6
 74
     0
 42
0.000000001
 43
0.00000001
 40
0.0
 40
0.0
 40
0.0
 40
0.0
 40
0.3794523958446271
 40
0.7627140330548993
 40
1.0
 40
1.0
 40
1.0
 40
1.0
 10
73.32587080415867
 20
142.2414280902179
 30
0.0
 10
73.10515731857316
 20
142.2281061701993
 30
0.0
 10
72.66151465197248
 20
142.2013285942589
 30
0.0
 10
72.085523759152
 20
142.0263719733274
 30
0.0
 10
71.73409316406222
 20
141.8687045175537
 30
0.0
 10
71.59971258147425
 20
141.8084153883257
 30
0.0
  0
LINE
  5
456
330
1F
100
AcDbEntity
  8
0
  6
Continuous
 62
     7
370
    25
100
AcDbLine
 10
71.5997125815
 20
141.8084153883
 30
0.0
 11
70.5131778938
 21
141.8084153883
 31
0.0
  0
LINE
  5
457
330
1F
100
AcDbEntity
  8
0
  6
Continuous
 62
     7
370
    25
100
AcDbLine
 10
67.187953713
 20
142.2414280902
 30
0.0
 11
73.3258708042
 21
142.2414280902
 31
0.0
  0
LINE
  5
458
330
1F
100
AcDbEntity
  8
0
  6
Continuous
 62
     7
370
    25
100
AcDbLine
 10
70.5131778938
 20
137.6744407921
 30
0.0
 11
71.5997125815
 21
137.6744407921
 31
0.0
  0
SPLINE
  5
459
330
1F
100
AcDbEntity
  8
0
  6
Continuous
 62
     7
370
    25
100
AcDbSpline
210
0.0
220
0.0
230
1.0
 70
     8
 71
     3
 72
    10
 73
     6
 74
     0
 42
0.000000001
 43
0.00000001
 40
0.0
 40
0.0
 40
0.0
 40
0.0
 40
0.2372861409041371
 40
0.6168892495779018
 40
1.0
 40
1.0
 40
1.0
 40
1.0
 10
71.59971258147402
 20
137.6744407921097
 30
0.0
 10
71.73409332166662
 20
137.6141513036686
 30
0.0
 10
72.0834522587679
 20
137.4574125361189
 30
0.0
 10
72.65938121251953
 20
137.2819998301599
 30
0.0
 10
73.1030275125411
 20
137.2549934034482
 30
0.0
 10
73.32587080415867
 20
137.2414280902179
 30
0.0
  0
LINE
  5
45A
330
1F
100
AcDbEntity
  8
0
  6
Continuous
 62
     7
370
    25
100
AcDbLine
 10
73.3258708042
 20
137.2414280902
 30
0.0
 11
67.187953713
 21
137.2414280902
 31
0.0
  0
LINE
  5
45B
330
1F
100
AcDbEntity
  8
0
  6
Continuous
 62
     7
370
    25
100
AcDbLine
 10
63.8627295323
 20
141.8084153883
 30
0.0
 11
62.8035319462
 21
141.8084153883
 31
0.0
  0
SPLINE
  5
45C
330
1F
100
AcDbEntity
  8
0
  6
Continuous
 62
     7
370
    25
100
AcDbSpline
210
0.0
220
0.0
230
1.0
 70
     8
 71
     3
 72
     9
 73
     5
 74
     0
 42
0.000000001
 43
0.00000001
 40
0.0
 40
0.0
 40
0.0
 40
0.0
 40
0.4965134544262693
 40
1.0
 40
1.0
 40
1.0
 40
1.0
 10
62.80353194623542
 20
141.8084153883257
 30
0.0
 10
62.5420729380152
 20
141.9309334848839
 30
0.0
 10
62.01548296167238
 20
142.1776903360144
 30
0.0
 10
61.47605879730803
 20
142.2200836347048
 30
0.0
 10
61.20446598819321
 20
142.2414280902179
 30
0.0
  0
LINE
  5
45D
330
1F
100
AcDbEntity
  8
0
  6
Continuous
 62
     7
370
    25
100
AcDbLine
 10
61.2044659882
 20
142.2414280902
 30
0.0
 11
67.187953713
 21
142.2414280902
 31
0.0
  0
SPLINE
  5
45E
330
1F
100
AcDbEntity
  8
0
  6
Continuous
 62
     7
370
    25
100
AcDbSpline
210
0.0
220
0.0
230
1.0
 70
     8
 71
     3
 72
    13
 73
     9
 74
     0
 42
0.000000001
 43
0.00000001
 40
0.0
 40
0.0
 40
0.0
 40
0.0
 40
0.1268230747973241
 40
0.2538012478645086
 40
0.4394007242008284
 40
0.6254231095520113
 40
0.8125599864038208
 40
1.0
 40
1.0
 40
1.0
 40
1.0
 10
61.20446598819325
 20
137.2414280902179
 30
0.0
 10
61.27280616610502
 20
137.2428755590481
 30
0.0
 10
61.40957009854404
 20
137.2457722668905
 30
0.0
 10
61.6460486913407
 20
137.2726066664279
 30
0.0
 10
61.91362864483967
 20
137.3250571413028
 30
0.0
 10
62.21173350308126
 20
137.41421435992
 30
0.0
 10
62.50883202940457
 20
137.5291140135261
 30
0.0
 10
62.70524565623226
 20
137.6259724041352
 30
0.0
 10
62.80353194623542
 20
137.6744407921101
 30
0.0
  0
LINE
  5
45F
330
1F
100
AcDbEntity
  8
0
  6
Continuous
 62
     7
370
    25
100
AcDbLine
 10
62.8035319462
 20
137.6744407921
 30
0.0
 11
63.8627295323
 21
137.6744407921
 31
0.0
  0
LINE
  5
460
330
1F
100
AcDbEntity
  8
0
  6
Continuous
 62
     7
370
    25
100
AcDbLine
 10
67.187953713
 20
137.2414280902
 30
0.0
 11
61.2044659882
 21
137.2414280902
 31
0.0
  0
LINE
  5
461
330
1F
100
AcDbEntity
  8
0
  6
Continuous
 62
     7
370
    25
100
AcDbLine
 10
71.5997125815
 20
137.6744407921
 30
0.0
 11
71.5997125815
 21
141.8084153883
 31
0.0
  0
LINE
  5
462
330
1F
100
AcDbEntity
  8
0
  6
Continuous
 62
     7
370
    25
100
AcDbLine
 10
62.8035319462
 20
141.8084153883
 30
0.0
 11
62.8035319462
 21
137.6744407921
 31
0.0
  0
SPLINE
  5
463
330
1F
100
AcDbEntity
  8
0
  6
Continuous
 62
     7
370
    25
100
AcDbSpline
210
0.0
220
0.0
230
1.0
 70
     8
 71
     3
 72
     9
 73
     5
 74
     0
 42
0.000000001
 43
0.00000001
 40
0.0
 40
0.0
 40
0.0
 40
0.0
 40
0.5563444717091601
 40
0.9999999999999999
 40
0.9999999999999999
 40
0.9999999999999999
 40
0.9999999999999999
 10
75.05202902684309
 20
141.8084153883257
 30
0.0
 10
74.7354429089022
 20
141.9439211094666
 30
0.0
 10
74.166395971187
 20
142.1874855340839
 30
0.0
 10
73.58417593977589
 20
142.2248507885209
 30
0.0
 10
73.32587080415867
 20
142.2414280902179
 30
0.0
  0
LINE
  5
464
330
1F
100
AcDbEntity
  8
0
  6
Continuous
 62
     7
370
    25
100
AcDbLine
 10
75.0520290268
 20
141.8084153883
 30
0.0
 11
75.0520290268
 21
137.6744407921
 31
0.0
  0
SPLINE
  5
465
330
1F
100
AcDbEntity
  8
0
  6
Continuous
 62
     7
370
    25
100
AcDbSpline
210
0.0
220
0.0
230
1.0
 70
     8
 71
     3
 72
     9
 73
     5
 74
     0
 42
0.000000001
 43
0.00000001
 40
0.0
 40
0.0
 40
0.0
 40
0.0
 40
0.443655528290842
 40
1.0
 40
1.0
 40
1.0
 40
1.0
 10
73.32587080415867
 20
137.2414280902179
 30
0.0
 10
73.58417593977589
 20
137.2580053919149
 30
0.0
 10
74.16639597118701
 20
137.295370646352
 30
0.0
 10
74.7354429089022
 20
137.5389350709693
 30
0.0
 10
75.05202902684307
 20
137.6744407921101
 30
0.0
  0
SPLINE
  5
466
330
1F
100
AcDbEntity
  8
0
  6
Continuous
 62
     7
370
    25
100
AcDbSpline
210
0.0
220
0.0
230
1.0
 70
     8
 71
     3
 72
    13
 73
     9
 74
     0
 42
0.000000001
 43
0.00000001
 40
0.0
 40
0.0
 40
0.0
 40
0.0
 40
0.1268230747973237
 40
0.2538012478645079
 40
0.4394007242008276
 40
0.6254231095520121
 40
0.8125599864038187
 40
1.0
 40
1.0
 40
1.0
 40
1.0
 10
61.20446598819321
 20
142.2414280902179
 30
0.0
 10
61.13612581028143
 20
142.2399806213877
 30
0.0
 10
60.99936187784237
 20
142.2370839135454
 30
0.0
 10
60.76288328504573
 20
142.2102495140079
 30
0.0
 10
60.49530333154676
 20
142.1577990391331
 30
0.0
 10
60.19719847330517
 20
142.0686418205158
 30
0.0
 10
59.90009994698185
 20
141.9537421669097
 30
0.0
 10
59.70368632015418
 20
141.8568837763006
 30
0.0
 10
59.60540003015101
 20
141.8084153883257
 30
0.0
  0
SPLINE
  5
467
330
1F
100
AcDbEntity
  8
0
  6
Continuous
 62
     7
370
    25
100
AcDbSpline
210
0.0
220
0.0
230
1.0
 70
     8
 71
     3
 72
     9
 73
     5
 74
     0
 42
0.000000001
 43
0.00000001
 40
0.0
 40
0.0
 40
0.0
 40
0.0
 40
0.496513454426272
 40
1.0
 40
1.0
 40
1.0
 40
1.0
 10
59.60540003015101
 20
137.6744407921101
 30
0.0
 10
59.86685903837122
 20
137.551922695552
 30
0.0
 10
60.39344901471404
 20
137.3051658444214
 30
0.0
 10
60.93287317907843
 20
137.262772545731
 30
0.0
 10
61.20446598819325
 20
137.2414280902179
 30
0.0
  0
LINE
  5
468
330
1F
100
AcDbEntity
  8
0
  6
Continuous
 62
     7
370
    25
100
AcDbLine
 10
59.6054000302
 20
137.6744407921
 30
0.0
 11
59.6054000302
 21
141.8084153883
 31
0.0
  0
LINE
  5
469
330
1F
100
AcDbEntity
  8
0
  6
Continuous
 62
     7
370
    25
100
AcDbLine
 10
75.0923830793
 20
141.8084153883
 30
0.0
 11
75.0520290268
 21
141.8084153883
 31
0.0
  0
LINE
  5
46A
330
1F
100
AcDbEntity
  8
0
  6
Continuous
 62
     7
370
    25
100
AcDbLine
 10
73.3258708042
 20
142.2414280902
 30
0.0
 11
74.3423830793
 21
142.2414280902
 31
0.0
  0
LINE
  5
46B
330
1F
100
AcDbEntity
  8
0
  6
Continuous
 62
     7
370
    25
100
AcDbLine
 10
75.0520290268
 20
137.6744407921
 30
0.0
 11
75.0923830793
 21
137.6744407921
 31
0.0
  0
LINE
  5
46C
330
1F
100
AcDbEntity
  8
0
  6
Continuous
 62
     7
370
    25
100
AcDbLine
 10
73.3258708042
 20
137.2414280902
 30
0.0
 11
74.3423830793
 21
137.2414280902
 31
0.0
  0
LINE
  5
46D
330
1F
100
AcDbEntity
  8
0
  6
Continuous
 62
     7
370
    25
100
AcDbLine
 10
59.6054000302
 20
141.8084153883
 30
0.0
 11
59.5923830793
 21
141.8084153883
 31
0.0
  0
LINE
  5
46E
330
1F
100
AcDbEntity
  8
0
  6
Continuous
 62
     7
370
    25
100
AcDbLine
 10
60.3423830793
 20
142.2414280902
 30
0.0
 11
61.2044659882
 21
142.2414280902
 31
0.0
  0
LINE
  5
46F
330
1F
100
AcDbEntity
  8
0
  6
Continuous
 62
     7
370
    25
100
AcDbLine
 10
59.5923830793
 20
137.6744407921
 30
0.0
 11
59.6054000302
 21
137.6744407921
 31
0.0
  0
LINE
  5
470
330
1F
100
AcDbEntity
  8
0
  6
Continuous
 62
     7
370
    25
100
AcDbLine
 10
61.2044659882
 20
137.2414280902
 30
0.0
 11
60.3423830793
 21
137.2414280902
 31
0.0
  0
ARC
  5
471
330
1F
100
AcDbEntity
  8
0
  6
Continuous
 62
     8
370
    18
100
AcDbCircle
 10
67.3423830793
 20
174.9689280902
 30
0.0
 40
24.89999999999999
100
AcDbArc
 50
245.8117817268
 51
294.1882182732
  0
CIRCLE
  5
472
330
1F
100
AcDbEntity
  8
0
  6
Continuous
 62
     8
370
    18
100
AcDbCircle
 10
67.3423830793
 20
193.9689280902
 30
0.0
 40
3.000000000000014
  0
CIRCLE
  5
473
330
1F
100
AcDbEntity
  8
0
  6
Continuous
 62
     8
370
    18
100
AcDbCircle
 10
48.3423830793
 20
174.9689280902
 30
0.0
 40
3.0
  0
LINE
  5
474
330
1F
100
AcDbEntity
  8
0
  6
Continuous
 62
     8
370
    18
100
AcDbLine
 10
47.3423830793
 20
208.4689280902
 30
0.0
 11
47.3423830793
 21
209.9689280902
 31
0.0
  0
LINE
  5
475
330
1F
100
AcDbEntity
  8
0
  6
Continuous
 62
     8
370
    18
100
AcDbLine
 10
87.3423830793
 20
208.4689280902
 30
0.0
 11
87.3423830793
 21
209.9689280902
 31
0.0
  0
LINE
  5
476
330
1F
100
AcDbEntity
  8
0
  6
Continuous
 62
     8
370
    18
100
AcDbLine
 10
92.3423830793
 20
206.9689280902
 30
0.0
 11
42.3423830793
 21
206.9689280902
 31
0.0
  0
CIRCLE
  5
477
330
1F
100
AcDbEntity
  8
0
  6
Continuous
 62
     8
370
    18
100
AcDbCircle
 10
67.3423830793
 20
174.9689280902
 30
0.0
 40
7.399999999999991
  0
LINE
  5
478
330
1F
100
AcDbEntity
  8
0
  6
Continuous
 62
     8
370
    18
100
AcDbLine
 10
97.9698830793
 20
172.3466244392
 30
0.0
 11
97.9698830793
 21
169.9689280902
 31
0.0
  0
LINE
  5
479
330
1F
100
AcDbEntity
  8
0
  6
Continuous
 62
     8
370
    18
100
AcDbLine
 10
97.9698830793
 20
179.9689280902
 30
0.0
 11
97.9698830793
 21
172.3466244392
 31
0.0
  0
LINE
  5
47A
330
1F
100
AcDbEntity
  8
0
  6
Continuous
 62
     8
370
    18
100
AcDbLine
 10
92.1698830793
 20
169.9689280902
 30
0.0
 11
92.1698830793
 21
179.9689280902
 31
0.0
  0
LINE
  5
47B
330
1F
100
AcDbEntity
  8
0
  6
Continuous
 62
     8
370
    18
100
AcDbLine
 10
71.6163028828
 20
142.6414280902
 30
0.0
 11
72.3423830793
 21
142.6414280902
 31
0.0
  0
LINE
  5
47C
330
1F
100
AcDbEntity
  8
0
  6
Continuous
 62
     8
370
    18
100
AcDbLine
 10
62.3423830793
 20
142.6414280902
 30
0.0
 11
71.6163028828
 21
142.6414280902
 31
0.0
  0
LINE
  5
47D
330
1F
100
AcDbEntity
  8
0
  6
Continuous
 62
     8
370
    18
100
AcDbLine
 10
72.3423830793
 20
136.8414280902
 30
0.0
 11
62.3423830793
 21
136.8414280902
 31
0.0
  0
ENDSEC
  0
SECTION
  2
OBJECTS
  0
DICTIONARY
  5
C
330
0
100
AcDbDictionary
281
     1
  3
ACAD_GROUP
350
D
  3
ACAD_LAYOUT
350
1A
  3
ACAD_MLINESTYLE
350
17
  3
ACAD_PLOTSETTINGS
350
19
  3
ACAD_PLOTSTYLENAME
350
E
  3
ACAD_SCALELIST
350
47
  0
DICTIONARY
  5
D
102
{ACAD_REACTORS
330
C
102
}
330
C
100
AcDbDictionary
281
     1
  0
DICTIONARY
  5
1A
102
{ACAD_REACTORS
330
C
102
}
330
C
100
AcDbDictionary
281
     1
  3
Layout1
350
1E
  3
Layout2
350
26
  3
Model
350
22
  0
DICTIONARY
  5
17
102
{ACAD_REACTORS
330
C
102
}
330
C
100
AcDbDictionary
281
     1
  3
Standard
350
18
  0
DICTIONARY
  5
19
102
{ACAD_REACTORS
330
C
102
}
330
C
100
AcDbDictionary
281
     1
  0
ACDBDICTIONARYWDFLT
  5
E
102
{ACAD_REACTORS
330
C
102
}
330
C
100
AcDbDictionary
281
     1
  3
Normal
350
F
100
AcDbDictionaryWithDefault
340
F
  0
DICTIONARY
  5
47
102
{ACAD_REACTORS
330
C
102
}
330
C
100
AcDbDictionary
281
     1
  3
A0
350
48
  3
A1
350
49
  3
A2
350
4A
  3
A3
350
4B
  3
A4
350
4C
  3
A5
350
4D
  3
A6
350
4E
  3
A7
350
4F
  3
A8
350
50
  3
A9
350
51
  3
B0
350
52
  3
B1
350
53
  3
B2
350
54
  3
B3
350
55
  3
B4
350
56
  3
B5
350
57
  3
B6
350
58
  3
B7
350
59
  3
B8
350
5A
  3
B9
350
5B
  3
C0
350
5C
  3
C1
350
5D
  3
C2
350
5E
  3
C3
350
5F
  3
C4
350
60
  3
C5
350
61
  3
C6
350
62
  3
C7
350
63
  3
C8
350
64
  3
C9
350
65
  3
D0
350
66
  3
D1
350
67
  3
D2
350
68
  0
LAYOUT
  5
1E
102
{ACAD_REACTORS
330
1A
102
}
330
1A
100
AcDbPlotSettings
  1

  2
none_device
  4

  6

 40
0.0
 41
0.0
 42
0.0
 43
0.0
 44
0.0
 45
0.0
 46
0.0
 47
0.0
 48
0.0
 49
0.0
140
0.0
141
0.0
142
1.0
143
1.0
 70
   688
 72
     1
 73
     0
 74
     5
  7

 75
    16
147
1.0
148
0.0
149
0.0
100
AcDbLayout
  1
Layout1
 70
     1
 71
     1
 10
0.0
 20
0.0
 11
420.0
 21
297.0
 12
0.0
 22
0.0
 32
0.0
 14
1.0000000000E+20
 24
1.0000000000E+20
 34
1.0000000000E+20
 15
-1.0000000000E+20
 25
-1.0000000000E+20
 35
-1.0000000000E+20
146
0.0
 13
0.0
 23
0.0
 33
0.0
 16
1.0
 26
0.0
 36
0.0
 17
0.0
 27
1.0
 37
0.0
 76
     0
330
1B
  0
LAYOUT
  5
26
102
{ACAD_REACTORS
330
1A
102
}
330
1A
100
AcDbPlotSettings
  1

  2
none_device
  4

  6

 40
0.0
 41
0.0
 42
0.0
 43
0.0
 44
0.0
 45
0.0
 46
0.0
 47
0.0
 48
0.0
 49
0.0
140
0.0
141
0.0
142
1.0
143
1.0
 70
   688
 72
     1
 73
     0
 74
     5
  7

 75
    16
147
1.0
148
0.0
149
0.0
100
AcDbLayout
  1
Layout2
 70
     1
 71
     2
 10
0.0
 20
0.0
 11
0.0
 21
0.0
 12
0.0
 22
0.0
 32
0.0
 14
0.0
 24
0.0
 34
0.0
 15
0.0
 25
0.0
 35
0.0
146
0.0
 13
0.0
 23
0.0
 33
0.0
 16
1.0
 26
0.0
 36
0.0
 17
0.0
 27
1.0
 37
0.0
 76
     0
330
23
  0
LAYOUT
  5
22
102
{ACAD_REACTORS
330
1A
102
}
330
1A
100
AcDbPlotSettings
  1

  2
none_device
  4
Letter_(8.50_x_11.00_Inches)
  6

 40
6.35
 41
6.35
 42
6.35000508
 43
6.35000508
 44
215.9
 45
279.4
 46
0.0
 47
0.0
 48
0.0
 49
0.0
140
0.0
141
0.0
142
1.0
143
1.0
 70
  1712
 72
     1
 73
     0
 74
     0
  7

 75
     0
147
1.0
148
0.0
149
0.0
100
AcDbLayout
  1
Model
 70
     1
 71
     0
 10
0.0
 20
0.0
 11
279.4
 21
215.9
 12
0.0
 22
0.0
 32
0.0
 14
0.0
 24
0.0
 34
0.0
 15
279.4
 25
215.9
 35
0.0
146
0.0
 13
0.0
 23
0.0
 33
0.0
 16
1.0
 26
0.0
 36
0.0
 17
0.0
 27
1.0
 37
0.0
 76
     0
330
1F
331
29
  0
MLINESTYLE
  5
18
102
{ACAD_REACTORS
330
17
102
}
330
17
100
AcDbMlineStyle
  2
Standard
 70
     0
  3

 62
   256
 51
90.0
 52
90.0
 71
     2
 49
0.5
 62
   256
  6
BYLAYER
 49
-0.5
 62
   256
  6
BYLAYER
  0
ACDBPLACEHOLDER
  5
F
102
{ACAD_REACTORS
330
E
102
}
330
E
  0
SCALE
  5
48
102
{ACAD_REACTORS
330
47
102
}
330
47
100
AcDbScale
 70
     0
300
1:1
140
1.0
141
1.0
290
     1
  0
SCALE
  5
49
102
{ACAD_REACTORS
330
47
102
}
330
47
100
AcDbScale
 70
     0
300
1:2
140
1.0
141
2.0
290
     0
  0
SCALE
  5
4A
102
{ACAD_REACTORS
330
47
102
}
330
47
100
AcDbScale
 70
     0
300
1:4
140
1.0
141
4.0
290
     0
  0
SCALE
  5
4B
102
{ACAD_REACTORS
330
47
102
}
330
47
100
AcDbScale
 70
     0
300
1:5
140
1.0
141
5.0
290
     0
  0
SCALE
  5
4C
102
{ACAD_REACTORS
330
47
102
}
330
47
100
AcDbScale
 70
     0
300
1:8
140
1.0
141
8.0
290
     0
  0
SCALE
  5
4D
102
{ACAD_REACTORS
330
47
102
}
330
47
100
AcDbScale
 70
     0
300
1:10
140
1.0
141
10.0
290
     0
  0
SCALE
  5
4E
102
{ACAD_REACTORS
330
47
102
}
330
47
100
AcDbScale
 70
     0
300
1:16
140
1.0
141
16.0
290
     0
  0
SCALE
  5
4F
102
{ACAD_REACTORS
330
47
102
}
330
47
100
AcDbScale
 70
     0
300
1:20
140
1.0
141
20.0
290
     0
  0
SCALE
  5
50
102
{ACAD_REACTORS
330
47
102
}
330
47
100
AcDbScale
 70
     0
300
1:30
140
1.0
141
30.0
290
     0
  0
SCALE
  5
51
102
{ACAD_REACTORS
330
47
102
}
330
47
100
AcDbScale
 70
     0
300
1:40
140
1.0
141
40.0
290
     0
  0
SCALE
  5
52
102
{ACAD_REACTORS
330
47
102
}
330
47
100
AcDbScale
 70
     0
300
1:50
140
1.0
141
50.0
290
     0
  0
SCALE
  5
53
102
{ACAD_REACTORS
330
47
102
}
330
47
100
AcDbScale
 70
     0
300
1:100
140
1.0
141
100.0
290
     0
  0
SCALE
  5
54
102
{ACAD_REACTORS
330
47
102
}
330
47
100
AcDbScale
 70
     0
300
2:1
140
2.0
141
1.0
290
     0
  0
SCALE
  5
55
102
{ACAD_REACTORS
330
47
102
}
330
47
100
AcDbScale
 70
     0
300
4:1
140
4.0
141
1.0
290
     0
  0
SCALE
  5
56
102
{ACAD_REACTORS
330
47
102
}
330
47
100
AcDbScale
 70
     0
300
8:1
140
8.0
141
1.0
290
     0
  0
SCALE
  5
57
102
{ACAD_REACTORS
330
47
102
}
330
47
100
AcDbScale
 70
     0
300
10:1
140
10.0
141
1.0
290
     0
  0
SCALE
  5
58
102
{ACAD_REACTORS
330
47
102
}
330
47
100
AcDbScale
 70
     0
300
100:1
140
100.0
141
1.0
290
     0
  0
SCALE
  5
59
102
{ACAD_REACTORS
330
47
102
}
330
47
100
AcDbScale
 70
     0
300
1/128" = 1'-0"
140
0.0078125
141
12.0
290
     0
  0
SCALE
  5
5A
102
{ACAD_REACTORS
330
47
102
}
330
47
100
AcDbScale
 70
     0
300
1/64" = 1'-0"
140
0.015625
141
12.0
290
     0
  0
SCALE
  5
5B
102
{ACAD_REACTORS
330
47
102
}
330
47
100
AcDbScale
 70
     0
300
1/32" = 1'-0"
140
0.03125
141
12.0
290
     0
  0
SCALE
  5
5C
102
{ACAD_REACTORS
330
47
102
}
330
47
100
AcDbScale
 70
     0
300
1/16" = 1'-0"
140
0.0625
141
12.0
290
     0
  0
SCALE
  5
5D
102
{ACAD_REACTORS
330
47
102
}
330
47
100
AcDbScale
 70
     0
300
3/32" = 1'-0"
140
0.09375
141
12.0
290
     0
  0
SCALE
  5
5E
102
{ACAD_REACTORS
330
47
102
}
330
47
100
AcDbScale
 70
     0
300
1/8" = 1'-0"
140
0.125
141
12.0
290
     0
  0
SCALE
  5
5F
102
{ACAD_REACTORS
330
47
102
}
330
47
100
AcDbScale
 70
     0
300
3/16" = 1'-0"
140
0.1875
141
12.0
290
     0
  0
SCALE
  5
60
102
{ACAD_REACTORS
330
47
102
}
330
47
100
AcDbScale
 70
     0
300
1/4" = 1'-0"
140
0.25
141
12.0
290
     0
  0
SCALE
  5
61
102
{ACAD_REACTORS
330
47
102
}
330
47
100
AcDbScale
 70
     0
300
3/8" = 1'-0"
140
0.375
141
12.0
290
     0
  0
SCALE
  5
62
102
{ACAD_REACTORS
330
47
102
}
330
47
100
AcDbScale
 70
     0
300
1/2" = 1'-0"
140
0.5
141
12.0
290
     0
  0
SCALE
  5
63
102
{ACAD_REACTORS
330
47
102
}
330
47
100
AcDbScale
 70
     0
300
3/4" = 1'-0"
140
0.75
141
12.0
290
     0
  0
SCALE
  5
64
102
{ACAD_REACTORS
330
47
102
}
330
47
100
AcDbScale
 70
     0
300
1" = 1'-0"
140
1.0
141
12.0
290
     0
  0
SCALE
  5
65
102
{ACAD_REACTORS
330
47
102
}
330
47
100
AcDbScale
 70
     0
300
1-1/2" = 1'-0"
140
1.5
141
12.0
290
     0
  0
SCALE
  5
66
102
{ACAD_REACTORS
330
47
102
}
330
47
100
AcDbScale
 70
     0
300
3" = 1'-0"
140
3.0
141
12.0
290
     0
  0
SCALE
  5
67
102
{ACAD_REACTORS
330
47
102
}
330
47
100
AcDbScale
 70
     0
300
6" = 1'-0"
140
6.0
141
12.0
290
     0
  0
SCALE
  5
68
102
{ACAD_REACTORS
330
47
102
}
330
47
100
AcDbScale
 70
     0
300
1'-0" = 1'-0"
140
12.0
141
12.0
290
     0
  0
ENDSEC
  0
EOF
