  0
SECTION
  2
HEADER
  9
$ACADVER
  1
AC1014
  9
$ACADMAINTVER
 70
           0
  9
$DWGCODEPAGE
  3
DOS932
  9
$INSBASE
 10
0.0
 20
0.0
 30
0.0
  9
$EXTMIN
 10
1.000000000000E+20
 20
1.000000000000E+20
 30
1.000000000000E+20
  9
$EXTMAX
 10
-1.000000000000E+20
 20
-1.000000000000E+20
 30
-1.000000000000E+20
  9
$LIMMIN
 10
0.0
 20
0.0
  9
$LIMMAX
 10
0.0
 20
0.0
  9
$ORTHOMODE
 70
           0
  9
$REGENMODE
 70
           1
  9
$FILLMODE
 70
           1
  9
$QTEXTMODE
 70
           0
  9
$MIRRTEXT
 70
           1
  9
$DRAGMODE
 70
           2
  9
$LTSCALE
 40
1.0
  9
$OSMODE
 70
           0
  9
$ATTMODE
 70
           1
  9
$TEXTSIZE
 40
0.2
  9
$TRACEWID
 40
0.05
  9
$TEXTSTYLE
  7
STANDARD
  9
$CLAYER
  8
0
  9
$CELTYPE
  6
CONTINUOUS
  9
$CECOLOR
 62
         256
  9
$CELTSCALE
 40
1.0
  9
$DELOBJ
 70
           1
  9
$DISPSILH
 70
           0
  9
$DIMSCALE
 40
1.0
  9
$DIMASZ
 40
0.18
  9
$DIMEXO
 40
0.0625
  9
$DIMDLI
 40
0.38
  9
$DIMRND
 40
0.0
  9
$DIMDLE
 40
0.0
  9
$DIMEXE
 40
0.18
  9
$DIMTP
 40
0.0
  9
$DIMTM
 40
0.0
  9
$DIMTXT
 40
0.18
  9
$DIMCEN
 40
0.09
  9
$DIMTSZ
 40
0.0
  9
$DIMTOL
 70
           0
  9
$DIMLIM
 70
           0
  9
$DIMTIH
 70
           1
  9
$DIMTOH
 70
           1
  9
$DIMSE1
 70
           0
  9
$DIMSE2
 70
           0
  9
$DIMTAD
 70
           0
  9
$DIMZIN
 70
           0
  9
$DIMBLK
  1

  9
$DIMASO
 70
           1
  9
$DIMSHO
 70
           1
  9
$DIMPOST
  1

  9
$DIMAPOST
  1

  9
$DIMALT
 70
           0
  9
$DIMALTD
 70
           2
  9
$DIMALTF
 40
25.4
  9
$DIMLFAC
 40
1.0
  9
$DIMTOFL
 70
           0
  9
$DIMTVP
 40
0.0
  9
$DIMTIX
 70
           0
  9
$DIMSOXD
 70
           0
  9
$DIMSAH
 70
           0
  9
$DIMBLK1
  1

  9
$DIMBLK2
  1

  9
$DIMSTYLE
  2
STANDARD
  9
$DIMCLRD
 70
           0
  9
$DIMCLRE
 70
           0
  9
$DIMCLRT
 70
           0
  9
$DIMTFAC
 40
1.0
  9
$DIMGAP
 40
0.09
  9
$DIMJUST
 70
           0
  9
$DIMSD1
 70
           0
  9
$DIMSD2
 70
           0
  9
$DIMTOLJ
 70
           1
  9
$DIMTZIN
 70
           0
  9
$DIMALTZ
 70
           0
  9
$DIMALTTZ
 70
           0
  9
$DIMFIT
 70
           3
  9
$DIMUPT
 70
           0
  9
$DIMUNIT
 70
           2
  9
$DIMDEC
 70
           4
  9
$DIMTDEC
 70
           4
  9
$DIMALTU
 70
           2
  9
$DIMALTTD
 70
           2
  9
$DIMTXSTY
  7
STANDARD
  9
$DIMAUNIT
 70
           0
  9
$LUNITS
 70
           2
  9
$LUPREC
 70
           4
  9
$SKETCHINC
 40
0.1
  9
$FILLETRAD
 40
0.0
  9
$AUNITS
 70
           0
  9
$AUPREC
 70
           0
  9
$MENU
  1
acad
  9
$ELEVATION
 40
0.0
  9
$PELEVATION
 40
0.0
  9
$THICKNESS
 40
0.0
  9
$LIMCHECK
 70
           0
  9
$BLIPMODE
 70
           1
  9
$CHAMFERA
 40
0.0
  9
$CHAMFERB
 40
0.0
  9
$CHAMFERC
 40
0.0
  9
$CHAMFERD
 40
0.0
  9
$SKPOLY
 70
           0
  9
$TDCREATE
 40
0.000000000
  9
$TDUPDATE
 40
0.000000000
  9
$TDINDWG
 40
0.0000000000
  9
$TDUSRTIMER
 40
0.0000000000
  9
$USRTIMER
 70
           1
  9
$ANGBASE
 50
0.0
  9
$ANGDIR
 70
           0
  9
$PDMODE
 70
           0
  9
$PDSIZE
 40
0.0
  9
$PLINEWID
 40
0.0
  9
$COORDS
 70
           0
  9
$SPLFRAME
 70
           0
  9
$SPLINETYPE
 70
           6
  9
$SPLINESEGS
 70
           8
  9
$ATTDIA
 70
           0
  9
$ATTREQ
 70
           1
  9
$HANDLING
 70
           1
  9
$HANDSEED
  5
309
  9
$SURFTAB1
 70
           6
  9
$SURFTAB2
 70
           6
  9
$SURFTYPE
 70
           6
  9
$SURFU
 70
           6
  9
$SURFV
 70
           6
  9
$UCSNAME
  2

  9
$UCSORG
 10
0.0
 20
0.0
 30
0.0
  9
$UCSXDIR
 10
1.0
 20
0.0
 30
0.0
  9
$UCSYDIR
 10
0.0
 20
1.0
 30
0.0
  9
$PUCSNAME
  2

  9
$PUCSORG
 10
0.0
 20
0.0
 30
0.0
  9
$PUCSXDIR
 10
1.0
 20
0.0
 30
0.0
  9
$PUCSYDIR
 10
0.0
 20
1.0
 30
0.0
  9
$USERI1
 70
           0
  9
$USERI2
 70
           0
  9
$USERI3
 70
           0
  9
$USERI4
 70
           0
  9
$USERI5
 70
           0
  9
$USERR1
 40
0.0
  9
$USERR2
 40
0.0
  9
$USERR3
 40
0.0
  9
$USERR4
 40
0.0
  9
$USERR5
 40
0.0
  9
$WORLDVIEW
 70
           1
  9
$SHADEDGE
 70
           3
  9
$SHADEDIF
 70
          70
  9
$TILEMODE
 70
           1
  9
$MAXACTVP
 70
          16
  9
$PINSBASE
 10
0.0
 20
0.0
 30
0.0
  9
$PLIMCHECK
 70
           0
  9
$PEXTMIN
 10
1.000000000000E+20
 20
1.000000000000E+20
 30
1.000000000000E+20
  9
$PEXTMAX
 10
-1.000000000000E+20
 20
-1.000000000000E+20
 30
-1.000000000000E+20
  9
$PLIMMIN
 10
0.0
 20
0.0
  9
$PLIMMAX
 10
12.0
 20
9.0
  9
$UNITMODE
 70
           0
  9
$VISRETAIN
 70
           0
  9
$PLINEGEN
 70
           1
  9
$PSLTSCALE
 70
           0
  9
$TREEDEPTH
 70
        3020
  9
$PICKSTYLE
 70
           1
  9
$CMLSTYLE
  2
STANDARD
  9
$CMLJUST
 70
           0
  9
$CMLSCALE
 40
1.0
  9
$PROXYGRAPHICS
 70
           0
  9
$MEASUREMENT
 70
           0
  0
ENDSEC
  0
SECTION
  2
CLASSES
  0
CLASS
  1
LWPOLYLINE
  2
AcDbPolyline
  3
"AutoCAD"
 90
        0
280
           0
281
           1
  0
CLASS
  1
IMAGE
  2
AcDbRasterImage
  3
ISM
 90
      127
280
           0
281
           1
  0
CLASS
  1
OLE2FRAME
  2
AcDbOle2Frame
  3
""
 90
        0
280
           0
281
           1
  0
CLASS
  1
HATCH
  2
AcDbHatch
  3
"ACAD_SEDONA"
 90
        0
280
           0
281
           1
  0
CLASS
  1
DICTIONARYVAR
  2
AcDbDictionaryVar
  3
"AutoCAD"
 90
        0
280
           0
281
           0
  0
CLASS
  1
RASTERVARIABLES
  2
AcDbRasterVariables
  3
ISM
 90
        0
280
           0
281
           0
  0
CLASS
  1
IMAGEDEF
  2
AcDbRasterImageDef
  3
ISM
 90
        0
280
           0
281
           0
  0
CLASS
  1
IMAGEDEF_REACTOR
  2
AcDbRasterImageDefReactor
  3
ISM
 90
        1
280
           0
281
           0
  0
CLASS
  1
IDBUFFER
  2
AcDbIdBuffer
  3
"Acad"
 90
        0
280
           0
281
           0
  0
CLASS
  1
SPATIAL_FILTER
  2
AcDbSpatialFilter
  3
"Acad"
 90
        0
280
           0
281
           0
  0
CLASS
  1
XRECORD
  2
AcDbXrecord
  3
"<Built In>"
 90
        0
280
           0
281
           0
  0
CLASS
  1
SORTENTSTABLE
  2
AcDbSortentsTable
  3
"AutoCAD"
 90
        0
280
           0
281
           0
  0
CLASS
  1
LAYER_INDEX
  2
AcDbLayerIndex
  3
"Acad"
 90
        0
280
           0
281
           0
  0
CLASS
  1
SPATIAL_INDEX
  2
AcDbSpatialIndex
  3
"Acad"
 90
        0
280
           0
281
           0
  0
CLASS
  1
OBJECT_PTR
  2
CAseDLPNTableRecord
  3
"ASE-LPNTableRecord"
 90
        1
280
           0
281
           0
  0
CLASS
  1
LAYOUT
  2
AcDbLayout
  3
"AutoCAD 2000"
 90
        1
280
           0
281
           0
  0
CLASS
  1
PLOTSETTINGS
  2
AcDbPlotSettings
  3
"AutoCAD 2000"
 90
        1
280
           0
281
           0
  0
CLASS
  1
ACDBDICTIONARYWDFLT
  2
AcDbDictionaryWithDefault
  3
"AutoCAD 2000"
 90
        1
280
           0
281
           0
  0
CLASS
  1
ACDBPLACEHOLDER
  2
AcDbPlaceHolder
  3
"AutoCAD 2000"
 90
        1
280
           0
281
           0
  0
CLASS
  1
VBA_PROJECT
  2
AcDbVbaProject
  3
"acadvba"
 90
        1
280
           0
281
           0
  0
CLASS
  1
WIPEOUT
  2
AcDbWipeout
  3
WipeOut|AutoCAD Express Tool|expresstools@autodesk.com
 90
      127
280
           0
281
           1
  0
CLASS
  1
WIPEOUTVARIABLES
  2
AcDbWipeoutVariables
  3
WipeOut|AutoCAD Express Tool|expresstools@autodesk.com
 90
        0
280
           0
281
           0
  0
CLASS
  1
RTEXT
  2
RText
  3
RText|AutoCAD Express Tool|expresstools@autodesk.com
 90
        0
280
           0
281
           1
  0
CLASS
  1
ARCALIGNEDTEXT
  2
AcDbArcAlignedText
  3
ATEXT|AutoCAD Express Tool|expresstools@autodesk.com
 90
        0
280
           0
281
           1
  0
ENDSEC
  0
SECTION
  2
TABLES
  0
TABLE
  2
VPORT
  5
7
100
AcDbSymbolTable
 70
           1
  0
VPORT
  5
15
100
AcDbSymbolTableRecord
100
AcDbViewportTableRecord
  2
*ACTIVE
 70
           0
 10
0.0
 20
0.0
 11
1.0
 21
1.0
 12
6.591288
 22
4.579184
 13
0.0
 23
0.0
 14
1.0
 24
1.0
 15
0.0
 25
0.0
 16
0.0
 26
0.0
 36
1.0
 17
0.0
 27
0.0
 37
0.0
 40
9.158369
 41
0.688564
 42
50.0
 43
0.0
 44
0.0
 50
0.0
 51
0.0
 71
           0
 72
         100
 73
           1
 74
           1
 75
           0
 76
           0
 77
           0
 78
           0
  0
ENDTAB
  0
TABLE
  2
LTYPE
  5
4
100
AcDbSymbolTable
 70
          10
  0
LTYPE
  5
11
100
AcDbSymbolTableRecord
100
AcDbLinetypeTableRecord
  2
BYBLOCK
 70
          64
  3

 72
          65
 73
           0
 40
0.0
  0
LTYPE
  5
12
100
AcDbSymbolTableRecord
100
AcDbLinetypeTableRecord
  2
BYLAYER
 70
          64
  3

 72
          65
 73
           0
 40
0.0
  0
LTYPE
  5
13
100
AcDbSymbolTableRecord
100
AcDbLinetypeTableRecord
  2
CONTINUOUS
 70
          64
  3
Solid line
 72
          65
 73
           0
 40
0.0
  0
LTYPE
  5
1D
100
AcDbSymbolTableRecord
100
AcDbLinetypeTableRecord
  2
DASHED
 70
          64
  3
Dashed
 72
          65
 73
           2
 40
15.0
 49
12.0
 74
           0
 49
-3.0
 74
           0
  0
LTYPE
  5
1E
100
AcDbSymbolTableRecord
100
AcDbLinetypeTableRecord
  2
DOTTED
 70
          64
  3
Dotted
 72
          65
 73
           2
 40
3.5
 49
0.5
 74
           0
 49
-3.0
 74
           0
  0
LTYPE
  5
1F
100
AcDbSymbolTableRecord
100
AcDbLinetypeTableRecord
  2
DOT_CENTER
 70
          64
  3
Dot_Center
 72
          65
 73
           4
 40
2.0
 49
1.25
 74
           0
 49
-0.25
 74
           0
 49
0.25
 74
           0
 49
-0.25
 74
           0
  0
LTYPE
  5
20
100
AcDbSymbolTableRecord
100
AcDbLinetypeTableRecord
  2
LONG_DASHED
 70
          64
  3
Long_Dashed
 72
          65
 73
           2
 40
2.0
 49
1.5
 74
           0
 49
-0.5
 74
           0
  0
LTYPE
  5
21
100
AcDbSymbolTableRecord
100
AcDbLinetypeTableRecord
  2
DASH_CENTER
 70
          64
  3
Dash_Center
 72
          65
 73
           4
 40
36.0
 49
24.0
 74
           0
 49
-3.0
 74
           0
 49
6.0
 74
           0
 49
-3.0
 74
           0
  0
LTYPE
  5
22
100
AcDbSymbolTableRecord
100
AcDbLinetypeTableRecord
  2
PHANTOM
 70
          64
  3
Phantom
 72
          65
 73
           6
 40
2.5
 49
1.25
 74
           0
 49
-0.25
 74
           0
 49
0.25
 74
           0
 49
-0.25
 74
           0
 49
0.25
 74
           0
 49
-0.25
 74
           0
  0
LTYPE
  5
23
100
AcDbSymbolTableRecord
100
AcDbLinetypeTableRecord
  2
CENTER_DASH_DASH
 70
          64
  3
Center_Dash_Dash
 72
          65
 73
           6
 40
22.0
 49
12.0
 74
           0
 49
-3.0
 74
           0
 49
0.5
 74
           0
 49
-3.0
 74
           0
 49
0.5
 74
           0
 49
-3.0
 74
           0
  0
ENDTAB
  0
TABLE
  2
LAYER
  5
2
100
AcDbSymbolTable
 70
           3
  0
LAYER
  5
14
100
AcDbSymbolTableRecord
100
AcDbLayerTableRecord
  2
0
 70
           0
 62
           7
  6
CONTINUOUS
  0
LAYER
  5
24
100
AcDbSymbolTableRecord
100
AcDbLayerTableRecord
  2

 70
           0
 62
           7
  6
CONTINUOUS
  0
LAYER
  5
25
100
AcDbSymbolTableRecord
100
AcDbLayerTableRecord
  2
1
 70
           0
 62
           7
  6
CONTINUOUS
  0
ENDTAB
  0
TABLE
  2
STYLE
  5
3
100
AcDbSymbolTable
 70
           1
  0
STYLE
  5
17
100
AcDbSymbolTableRecord
100
AcDbTextStyleTableRecord
  2
STANDARD
 70
           0
 40
0.0
 41
1.0
 50
0.0
 71
           0
 42
0.0
  3
txt
  4

  0
ENDTAB
  0
TABLE
  2
VIEW
  5
5
100
AcDbSymbolTable
 70
           0
  0
ENDTAB
  0
TABLE
  2
UCS
  5
6
100
AcDbSymbolTable
 70
           0
  0
ENDTAB
  0
TABLE
  2
APPID
  5
8
100
AcDbSymbolTable
 70
           1
  0
APPID
  5
16
100
AcDbSymbolTableRecord
100
AcDbRegAppTableRecord
  2
ACAD
 70
           0
  0
ENDTAB
  0
TABLE
  2
DIMSTYLE
  5
9
100
AcDbSymbolTable
 70
           1
  0
DIMSTYLE
105
18
100
AcDbSymbolTableRecord
100
AcDbDimStyleTableRecord
  2
STANDARD
 70
           0
  3

  4

  5

  6

  7

 40
1.0
 41
0.18
 42
0.0625
 43
0.38
 44
0.18
 45
0.0
 46
0.0
 47
0.0
 48
0.0
 71
           0
 72
           0
 73
           1
 74
           1
 75
           0
 76
           0
 77
           0
 78
           0
140
0.18
141
0.09
142
0.0
143
25.4
144
1.0
145
0.0
146
1.0
147
0.09
170
           0
171
           2
172
           0
173
           0
174
           0
175
           0
176
           0
177
           0
178
           0
270
           2
271
           4
272
           4
273
           2
274
           2
275
           0
280
           0
281
           0
282
           0
283
           1
284
           0
285
           0
286
           0
287
           0
288
           0
340
17
  0
ENDTAB
  0
TABLE
  2
BLOCK_RECORD
  5
1
100
AcDbSymbolTable
 70
           0
  0
BLOCK_RECORD
  5
A
100
AcDbSymbolTableRecord
100
AcDbBlockTableRecord
  2
*MODEL_SPACE
  0
BLOCK_RECORD
  5
B
100
AcDbSymbolTableRecord
100
AcDbBlockTableRecord
  2
*PAPER_SPACE
  0
ENDTAB
  0
ENDSEC
  0
SECTION
  2
BLOCKS
  0
BLOCK
  5
D
100
AcDbEntity
  8
0
100
AcDbBlockBegin
  2
*MODEL_SPACE
 70
           0
 10
0.0
 20
0.0
 30
0.0
  3
*MODEL_SPACE
  1

  0
ENDBLK
  5
E
100
AcDbEntity
  8
0
100
AcDbBlockEnd
  0
BLOCK
  5
F
100
AcDbEntity
 67
           1
  8
0
100
AcDbBlockBegin
  2
*PAPER_SPACE
 70
           0
 10
0.0
 20
0.0
 30
0.0
  3
*PAPER_SPACE
  1

  0
ENDBLK
  5
10
100
AcDbEntity
 67
           1
  8
0
100
AcDbBlockEnd
  0
ENDSEC
  0
SECTION
  2
ENTITIES
  0
ARC
  5
307
100
AcDbEntity
  8
1
  6
CONTINUOUS
 62
           2
100
AcDbCircle
 10
362.782536005985
 20
278.294117647058
 40
0.823529411765
100
AcDbArc
 50
-90.0
 51
0.0
  0
ARC
  5
306
100
AcDbEntity
  8
1
  6
CONTINUOUS
 62
           2
100
AcDbCircle
 10
356.621571298405
 20
278.294117647058
 40
0.823529411765
100
AcDbArc
 50
-90.0
 51
0.0
  0
ARC
  5
305
100
AcDbEntity
  8
1
  6
CONTINUOUS
 62
           2
100
AcDbCircle
 10
360.622550355083
 20
272.591176470587
 40
0.267647058823
100
AcDbArc
 50
180.0
 51
-90.0
  0
ARC
  5
304
100
AcDbEntity
  8
1
  6
CONTINUOUS
 62
           2
100
AcDbCircle
 10
360.746079766848
 20
272.591176470587
 40
0.267647058823
100
AcDbArc
 50
-90.0
 51
0.0
  0
ARC
  5
303
100
AcDbEntity
  8
1
  6
CONTINUOUS
 62
           2
100
AcDbCircle
 10
360.622550355083
 20
277.408823529411
 40
0.267647058824
100
AcDbArc
 50
90.0
 51
180.0
  0
ARC
  5
302
100
AcDbEntity
  8
1
  6
CONTINUOUS
 62
           2
100
AcDbCircle
 10
360.746079766848
 20
277.408823529411
 40
0.267647058824
100
AcDbArc
 50
0.0
 51
90.0
  0
ARC
  5
301
100
AcDbEntity
  8
1
  6
CONTINUOUS
 62
           2
100
AcDbCircle
 10
360.107844472731
 20
277.676470588235
 40
0.823529411764
100
AcDbArc
 50
90.0
 51
180.0
  0
ARC
  5
300
100
AcDbEntity
  8
1
  6
CONTINUOUS
 62
           2
100
AcDbCircle
 10
361.260785649201
 20
277.676470588235
 40
0.823529411765
100
AcDbArc
 50
0.0
 51
90.0
  0
ARC
  5
2FF
100
AcDbEntity
  8
1
  6
CONTINUOUS
 62
           2
100
AcDbCircle
 10
360.107844472731
 20
272.323529411764
 40
0.823529411765
100
AcDbArc
 50
180.0
 51
-90.0
  0
ARC
  5
2FE
100
AcDbEntity
  8
1
  6
CONTINUOUS
 62
           2
100
AcDbCircle
 10
361.260785649201
 20
272.323529411764
 40
0.823529411765
100
AcDbArc
 50
-90.0
 51
0.0
  0
ARC
  5
2FD
100
AcDbEntity
  8

  6
CONTINUOUS
 62
           7
100
AcDbCircle
 10
362.151528640096
 20
295.454628836533
 40
2.000000000001
100
AcDbArc
 50
12.499999999987
 51
104.230985615799
  0
ARC
  5
2FC
100
AcDbEntity
  8

  6
CONTINUOUS
 62
           7
100
AcDbCircle
 10
342.999999999999
 20
289.5658662584
 40
3.000000000001
100
AcDbArc
 50
104.230985615808
 51
179.999999999975
  0
ARC
  5
2FB
100
AcDbEntity
  8
1
  6
CONTINUOUS
 62
           7
100
AcDbCircle
 10
345.999999999997
 20
239.5
 40
1.0
100
AcDbArc
 50
180.0
 51
-90.0
  0
ARC
  5
2FA
100
AcDbEntity
  8
1
  6
CONTINUOUS
 62
           7
100
AcDbCircle
 10
373.818552892064
 20
243.0
 40
1.0
100
AcDbArc
 50
-90.0
 51
-15.000000000034
  0
ARC
  5
2F9
100
AcDbEntity
  8
1
  6
CONTINUOUS
 62
           7
100
AcDbCircle
 10
372.499999999997
 20
239.5
 40
1.0
100
AcDbArc
 50
-90.0
 51
0.0
  0
ARC
  5
2F8
100
AcDbEntity
  8
1
  6
CONTINUOUS
 62
           7
100
AcDbCircle
 10
388.999999999997
 20
296.25
 40
0.5
100
AcDbArc
 50
0.0
 51
90.0
  0
ARC
  5
2F7
100
AcDbEntity
  8
1
  6
CONTINUOUS
 62
           7
100
AcDbCircle
 10
388.999999999997
 20
261.75
 40
0.5
100
AcDbArc
 50
-90.0
 51
0.0
  0
ARC
  5
2F6
100
AcDbEntity
  8
1
  6
CONTINUOUS
 62
           7
100
AcDbCircle
 10
324.499999999998
 20
272.0
 40
0.5
100
AcDbArc
 50
-90.0
 51
0.0
  0
ARC
  5
2F5
100
AcDbEntity
  8
1
  6
CONTINUOUS
 62
           7
100
AcDbCircle
 10
326.999999999999
 20
284.5
 40
2.0
100
AcDbArc
 50
90.000000000034
 51
180.0
  0
ARC
  5
2F4
100
AcDbEntity
  8
1
  6
CONTINUOUS
 62
           7
100
AcDbCircle
 10
324.999999999997
 20
285.5
 40
3.0
100
AcDbArc
 50
90.0
 51
180.0
  0
ARC
  5
2F3
100
AcDbEntity
  8
1
  6
CONTINUOUS
 62
           7
100
AcDbCircle
 10
338.499999999998
 20
272.0
 40
0.5
100
AcDbArc
 50
180.0
 51
-90.00000000013
  0
ARC
  5
2F2
100
AcDbEntity
  8
1
  6
CONTINUOUS
 62
           7
100
AcDbCircle
 10
335.999999999997
 20
284.5
 40
2.000000000001
100
AcDbArc
 50
0.0
 51
90.0
  0
ARC
  5
2F1
100
AcDbEntity
  8
1
  6
CONTINUOUS
 62
           7
100
AcDbCircle
 10
336.999999999997
 20
285.5
 40
3.0
100
AcDbArc
 50
0.0
 51
90.0
  0
ARC
  5
2F0
100
AcDbEntity
  8
1
  6
CONTINUOUS
 62
           7
100
AcDbCircle
 10
317.470600597931
 20
263.5
 40
2.0
100
AcDbArc
 50
-90.0
 51
-22.776051174779
  0
ARC
  5
2EF
100
AcDbEntity
  8
1
  6
CONTINUOUS
 62
           7
100
AcDbCircle
 10
358.491418157193
 20
311.964320316116
 40
2.0
100
AcDbArc
 50
12.499999999998
 51
103.954509173143
  0
ARC
  5
2EE
100
AcDbEntity
  8

  6
CONTINUOUS
 62
           7
100
AcDbCircle
 10
295.211010834416
 20
260.512147434164
 40
3.0
100
AcDbArc
 50
59.999999999996
 51
123.974723065998
  0
ARC
  5
2ED
100
AcDbEntity
  8
1
  6
CONTINUOUS
 62
           7
100
AcDbCircle
 10
300.303847577291
 20
264.5
 40
2.999999999999
100
AcDbArc
 50
-120.000000000012
 51
-90.0
  0
ARC
  5
2EC
100
AcDbEntity
  8
1
  6
CONTINUOUS
 62
           7
100
AcDbCircle
 10
120.366025403782
 20
276.0
 40
1.5
100
AcDbArc
 50
180.0
 51
-90.0
  0
ARC
  5
2EB
100
AcDbEntity
  8
1
  6
CONTINUOUS
 62
           7
100
AcDbCircle
 10
304.699999999997
 20
261.6
 40
0.5
100
AcDbArc
 50
-90.0
 51
-11.536975656503
  0
ARC
  5
2EA
100
AcDbEntity
  8
1
  6
PHANTOM
 62
           2
100
AcDbCircle
 10
322.999999999997
 20
287.5
 40
1.0
100
AcDbArc
 50
90.0
 51
179.999999999983
  0
ARC
  5
2E9
100
AcDbEntity
  8
1
  6
PHANTOM
 62
           2
100
AcDbCircle
 10
338.999999999998
 20
287.5
 40
1.0
100
AcDbArc
 50
0.000000000016
 51
90.0
  0
ARC
  5
2E8
100
AcDbEntity
  8
1
  6
CONTINUOUS
 62
           7
100
AcDbCircle
 10
316.849999999998
 20
253.17735026919
 40
1.0
100
AcDbArc
 50
180.0
 51
-119.999999999987
  0
ARC
  5
2E7
100
AcDbEntity
  8
1
  6
CONTINUOUS
 62
           7
100
AcDbCircle
 10
316.849999999998
 20
255.600000000001
 40
1.0
100
AcDbArc
 50
90.000000000068
 51
-179.999999999947
  0
ARC
  5
2E6
100
AcDbEntity
  8
1
  6
CONTINUOUS
 62
           7
100
AcDbCircle
 10
304.349999999998
 20
255.6
 40
1.0
100
AcDbArc
 50
0.000000000016
 51
90.0
  0
ARC
  5
2E5
100
AcDbEntity
  8
1
  6
CONTINUOUS
 62
           7
100
AcDbCircle
 10
304.349999999998
 20
253.17735026919
 40
1.0
100
AcDbArc
 50
-60.000000000012
 51
0.0
  0
ARC
  5
2E4
100
AcDbEntity
  8
1
  6
CONTINUOUS
 62
           7
100
AcDbCircle
 10
316.499999999997
 20
261.600000000001
 40
0.5
100
AcDbArc
 50
-168.463040772337
 51
-90.0
  0
ARC
  5
2E3
100
AcDbEntity
  8

  6
CONTINUOUS
 62
           7
100
AcDbCircle
 10
477.415771720878
 20
310.456661998269
 40
3.000000000001
100
AcDbArc
 50
109.176787266903
 51
162.707848050793
  0
ARC
  5
2E2
100
AcDbEntity
  8

  6
CONTINUOUS
 62
           7
100
AcDbCircle
 10
488.584228279121
 20
310.456661998269
 40
3.0
100
AcDbArc
 50
17.292151949208
 51
70.823212733095
  0
ARC
  5
2E1
100
AcDbEntity
  8

  6
CONTINUOUS
 62
           7
100
AcDbCircle
 10
468.26074330548
 20
300.84498104478
 40
4.000000000001
100
AcDbArc
 50
-64.243190914135
 51
-6.577699607213
  0
ARC
  5
2E0
100
AcDbEntity
  8

  6
CONTINUOUS
 62
           7
100
AcDbCircle
 10
497.739256694519
 20
300.84498104478
 40
4.000000000001
100
AcDbArc
 50
-173.422300392787
 51
-115.756809085866
  0
ARC
  5
2DF
100
AcDbEntity
  8
1
  6
CONTINUOUS
 62
           7
100
AcDbCircle
 10
464.8
 20
266.2
 40
0.8
100
AcDbArc
 50
90.0
 51
180.0
  0
ARC
  5
2DE
100
AcDbEntity
  8
1
  6
CONTINUOUS
 62
           7
100
AcDbCircle
 10
501.199999999999
 20
266.2
 40
0.8
100
AcDbArc
 50
0.0
 51
90.0
  0
ARC
  5
2DD
100
AcDbEntity
  8
1
  6
CONTINUOUS
 62
           7
100
AcDbCircle
 10
501.499999999999
 20
244.500000000001
 40
0.5
100
AcDbArc
 50
-94.654551888681
 51
-0.000000000046
  0
ARC
  5
2DC
100
AcDbEntity
  8
1
  6
CONTINUOUS
 62
           7
100
AcDbCircle
 10
464.499999999999
 20
244.500000000001
 40
0.5
100
AcDbArc
 50
-179.999999999954
 51
-85.345448111117
  0
ARC
  5
2DB
100
AcDbEntity
  8
1
  6
CONTINUOUS
 62
           7
100
AcDbCircle
 10
466.5
 20
241.500000000001
 40
0.499999999999
100
AcDbArc
 50
0.0
 51
90.0
  0
ARC
  5
2DA
100
AcDbEntity
  8
1
  6
CONTINUOUS
 62
           7
100
AcDbCircle
 10
466.03071353665
 20
243.500000000001
 40
1.5
100
AcDbArc
 50
178.838758091663
 51
-90.0
  0
ARC
  5
2D9
100
AcDbEntity
  8
1
  6
CONTINUOUS
 62
           7
100
AcDbCircle
 10
467.999999999999
 20
239.500000000001
 40
1.0
100
AcDbArc
 50
180.0
 51
-90.0
  0
ARC
  5
2D8
100
AcDbEntity
  8
1
  6
CONTINUOUS
 62
           7
100
AcDbCircle
 10
498.0
 20
239.500000000001
 40
1.0
100
AcDbArc
 50
-90.0
 51
0.0
  0
ARC
  5
2D7
100
AcDbEntity
  8
1
  6
CONTINUOUS
 62
           7
100
AcDbCircle
 10
499.969286463349
 20
243.500000000001
 40
1.5
100
AcDbArc
 50
-90.0
 51
1.161241908337
  0
ARC
  5
2D6
100
AcDbEntity
  8
1
  6
CONTINUOUS
 62
           7
100
AcDbCircle
 10
499.499999999999
 20
241.500000000001
 40
0.5
100
AcDbArc
 50
90.0
 51
180.0
  0
ARC
  5
2D5
100
AcDbEntity
  8
1
  6
CONTINUOUS
 62
           2
100
AcDbCircle
 10
319.542604542922
 20
297.360451633048
 40
0.1
100
AcDbArc
 50
38.130760972172
 51
-165.72130637301
  0
ARC
  5
2D4
100
AcDbEntity
  8
1
  6
CONTINUOUS
 62
           2
100
AcDbCircle
 10
315.399095522228
 20
296.670861626652
 40
0.1
100
AcDbArc
 50
31.502524177742
 51
175.73638717982
  0
ARC
  5
2D3
100
AcDbEntity
  8
1
  6
CONTINUOUS
 62
           2
100
AcDbCircle
 10
321.74271539368
 20
296.548931533903
 40
0.1
100
AcDbArc
 50
-141.506178210505
 51
14.27869362687
  0
ARC
  5
2D2
100
AcDbEntity
  8
1
  6
CONTINUOUS
 62
           2
100
AcDbCircle
 10
341.747830217186
 20
302.878318226063
 40
0.1
100
AcDbArc
 50
24.799526621359
 51
-177.035544636528
  0
ARC
  5
2D1
100
AcDbEntity
  8
1
  6
CONTINUOUS
 62
           2
100
AcDbCircle
 10
340.663766437053
 20
301.475835066288
 40
0.1
100
AcDbArc
 50
-148.672557972533
 51
3.71614574128
  0
ARC
  5
2D0
100
AcDbEntity
  8
1
  6
CONTINUOUS
 62
           2
100
AcDbCircle
 10
344.825729594146
 20
304.163339927926
 40
0.099999999999
100
AcDbArc
 50
31.653338506848
 51
175.767861918179
  0
ARC
  5
2CF
100
AcDbEntity
  8
1
  6
CONTINUOUS
 62
           2
100
AcDbCircle
 10
343.377514379352
 20
302.135524719552
 40
0.099999999999
100
AcDbArc
 50
-154.603470678448
 51
-6.418601950049
  0
ARC
  5
2CE
100
AcDbEntity
  8
1
  6
CONTINUOUS
 62
           2
100
AcDbCircle
 10
352.093851476414
 20
306.048502008827
 40
0.1
100
AcDbArc
 50
31.107126222735
 51
175.908585449126
  0
SPLINE
  5
2CD
100
AcDbEntity
  8
1
  6
CONTINUOUS
 62
           2
100
AcDbSpline
210
0.0
220
0.0
230
1.0
 70
           0
 71
           4
 72
           8
 73
           4
 74
           3
 42
0.00000000001
 43
0.00000000001
 44
0.00000000001
 40
0.0
 40
0.0
 40
0.0
 40
0.0
 40
1.0438349935688307
 40
1.0438349935688307
 40
1.0438349935688307
 40
1.0438349935688307
 10
305.05627283757508
 20
296.01798769773251
 30
0.0
 10
304.8315118804212
 20
295.75384719613271
 30
0.0
 10
304.64952319479812
 20
295.45562450133951
 30
0.0
 10
304.51697235068309
 20
295.13424240359842
 30
0.0
 11
305.05627283757508
 21
296.01798769773251
 31
0.0
 11
304.75204380173955
 21
295.59758064921846
 31
0.0
 11
304.51697235068309
 21
295.13424240359842
 31
0.0
  0
SPLINE
  5
2CC
100
AcDbEntity
  8
1
  6
CONTINUOUS
 62
           2
100
AcDbSpline
210
0.0
220
0.0
230
1.0
 70
           0
 71
           4
 72
          10
 73
           6
 74
           7
 42
0.00000000001
 43
0.00000000001
 44
0.00000000001
 40
0.0
 40
0.0
 40
0.0
 40
0.0
 40
0.3696586985752109
 40
0.7387605761767635
 40
1.1091150635863989
 40
1.1091150635863989
 40
1.1091150635863989
 40
1.1091150635863989
 10
305.96175407287052
 20
296.62964639506561
 30
0.0
 10
305.78709956319523
 20
296.57050971383762
 30
0.0
 10
305.62113648958848
 20
296.48817461667852
 30
0.0
 10
305.31528925074213
 20
296.28155016861137
 30
0.0
 10
305.17676212529727
 20
296.15817760740453
 30
0.0
 10
305.05627283757508
 20
296.01798769773251
 30
0.0
 11
305.96175407287052
 21
296.62964639506561
 31
0.0
 11
305.75584717174854
 21
296.55042215913932
 31
0.0
 11
305.61155816768093
 21
296.4742683275694
 31
0.0
 11
305.46916703553507
 21
296.3836499161992
 31
0.0
 11
305.33192528780768
 21
296.2853677767165
 31
0.0
 11
305.20711419431666
 21
296.17972418037982
 31
0.0
 11
305.05627283757508
 21
296.01798769773251
 31
0.0
  0
SPLINE
  5
2CB
100
AcDbEntity
  8
1
  6
CONTINUOUS
 62
           2
100
AcDbSpline
210
0.0
220
0.0
230
1.0
 70
           0
 71
           4
 72
          10
 73
           6
 74
           7
 42
0.00000000001
 43
0.00000000001
 44
0.00000000001
 40
0.0
 40
0.0
 40
0.0
 40
0.0
 40
0.1308411321911699
 40
0.2613536601704046
 40
0.3924601241530611
 40
0.3924601241530611
 40
0.3924601241530611
 40
0.3924601241530611
 10
307.1682003649762
 20
294.47436968785343
 30
0.0
 10
307.10489239775848
 20
294.45873790181361
 30
0.0
 10
307.0444972879061
 20
294.43304803085351
 30
0.0
 10
306.93407030973032
 20
294.36348221704748
 30
0.0
 10
306.88474247404611
 20
294.32004979447453
 30
0.0
 10
306.8431533091441
 20
294.26959941035761
 30
0.0
 11
307.1682003649762
 21
294.47436968785343
 31
0.0
 11
307.09349696211717
 21
294.45200718110823
 31
0.0
 11
307.04112751382149
 21
294.42784360701029
 31
0.0
 11
306.98966690285783
 21
294.39773685856107
 31
0.0
 11
306.94028094595399
 21
294.36431942301812
 31
0.0
 11
306.89575610392541
 21
294.32743926708059
 31
0.0
 11
306.8431533091441
 21
294.26959941035761
 31
0.0
  0
SPLINE
  5
2CA
100
AcDbEntity
  8
1
  6
CONTINUOUS
 62
           2
100
AcDbSpline
210
0.0
220
0.0
230
1.0
 70
           0
 71
           4
 72
          12
 73
           8
 74
          11
 42
0.00000000001
 43
0.00000000001
 44
0.00000000001
 40
0.0
 40
0.0
 40
0.0
 40
0.0
 40
0.1630305855113676
 40
0.3249887431695068
 40
0.4065898292447688
 40
0.5681282295543253
 40
0.7302534252823224
 40
0.7302534252823224
 40
0.7302534252823224
 40
0.7302534252823224
 10
319.94525093170643
 20
298.64849370923451
 30
0.0
 10
319.89456868575212
 20
298.7119306757366
 30
0.0
 10
319.83231620710512
 20
298.76504732816352
 30
0.0
 10
319.69140745139021
 20
298.84489197353747
 30
0.0
 10
319.61405555711531
 20
298.87088085001852
 30
0.0
 10
319.45392738959231
 20
298.89217931804552
 30
0.0
 10
319.37263341192852
 20
298.88729175111649
 30
0.0
 10
319.29450816404528
 20
298.86713183786162
 30
0.0
 11
319.94525093170643
 21
298.64849370923451
 31
0.0
 11
319.87980120148643
 21
298.72099147803198
 31
0.0
 11
319.81943342335643
 21
298.76791616311226
 31
0.0
 11
319.74828264829307
 21
298.81151737024459
 31
0.0
 11
319.68031800098146
 21
298.84643239882604
 31
0.0
 11
319.65252428299436
 21
298.8574083092978
 31
0.0
 11
319.62372769078831
 21
298.86543481679638
 31
0.0
 11
319.54861145269649
 21
298.87857669307573
 31
0.0
 11
319.46576504019333
 21
298.88669392781162
 31
0.0
 11
319.38977946484505
 21
298.88561511429413
 31
0.0
 11
319.29450816404528
 21
298.86713183786162
 31
0.0
  0
SPLINE
  5
2C9
100
AcDbEntity
  8
1
  6
CONTINUOUS
 62
           2
100
AcDbSpline
210
0.0
220
0.0
230
1.0
 70
           0
 71
           4
 72
          12
 73
           8
 74
          11
 42
0.00000000001
 43
0.00000000001
 44
0.00000000001
 40
0.0
 40
0.0
 40
0.0
 40
0.0
 40
0.1727127687937173
 40
0.3441793457473458
 40
0.4306634904879789
 40
0.6016474707468213
 40
0.7733396249406872
 40
0.7733396249406872
 40
0.7733396249406872
 40
0.7733396249406872
 10
316.16573367981232
 20
297.64924703935282
 30
0.0
 10
316.11654650336823
 20
297.7197523029896
 30
0.0
 10
316.05363438598653
 20
297.77947539769048
 30
0.0
 10
315.90804807756308
 20
297.87005913691462
 30
0.0
 10
315.82690088687627
 20
297.89996968246561
 30
0.0
 10
315.65781455150341
 20
297.92537308175253
 30
0.0
 10
315.57164889016508
 20
297.92059948873072
 30
0.0
 10
315.48911935795809
 20
297.89866609130542
 30
0.0
 11
316.16573367981232
 21
297.64924703935282
 31
0.0
 11
316.1012816232672
 21
297.73006899721679
 31
0.0
 11
316.03995014698944
 21
297.78288211363588
 31
0.0
 11
315.96672948363295
 21
297.8322255906624
 31
0.0
 11
315.89628740013171
 21
297.87190823446696
 31
0.0
 11
315.86722467942838
 21
297.88448335234358
 31
0.0
 11
315.83693703937365
 21
297.89377116860396
 31
0.0
 11
315.75775653921835
 21
297.90922010492619
 31
0.0
 11
315.67025476855929
 21
297.91909259968867
 31
0.0
 11
315.58984788302951
 21
297.91856635132001
 31
0.0
 11
315.48911935795809
 21
297.89866609130542
 31
0.0
  0
SPLINE
  5
2C8
100
AcDbEntity
  8
1
  6
CONTINUOUS
 62
           2
100
AcDbSpline
210
0.0
220
0.0
230
1.0
 70
           0
 71
           4
 72
          12
 73
           8
 74
          11
 42
0.00000000001
 43
0.00000000001
 44
0.00000000001
 40
0.0
 40
0.0
 40
0.0
 40
0.0
 40
0.1639712938400573
 40
0.3268565508090427
 40
0.408930996907255
 40
0.571390617664953
 40
0.7344629453385573
 40
0.7344629453385573
 40
0.7344629453385573
 40
0.7344629453385573
 10
321.3904456915302
 20
295.16837062066747
 30
0.0
 10
321.44098222026543
 20
295.10422466879561
 30
0.0
 10
321.50327909451948
 20
295.05042914871552
 30
0.0
 10
321.64458855739332
 20
294.96941530644051
 30
0.0
 10
321.72228040539107
 20
294.94295417537961
 30
0.0
 10
321.8832516934192
 20
294.92101396555148
 30
0.0
 10
321.96502662472841
 20
294.92573994967262
 30
0.0
 10
322.04408367313732
 20
294.94409975311447
 30
0.0
 11
321.3904456915302
 21
295.16837062066747
 31
0.0
 11
321.4557909949844
 21
295.09503122398166
 31
0.0
 11
321.51623314732001
 21
295.04749255577559
 31
0.0
 11
321.58755954691537
 21
295.00327256717338
 31
0.0
 11
321.65573988819244
 21
294.96782868357275
 31
0.0
 11
321.68364595753269
 21
294.9566669496358
 31
0.0
 11
321.71257738669482
 21
294.94848140090539
 31
0.0
 11
321.78807110093055
 21
294.93500669411117
 31
0.0
 11
321.87135779933851
 21
294.92658812194242
 31
0.0
 11
321.9478384940287
 21
294.92725315678041
 31
0.0
 11
322.04408367313732
 21
294.94409975311447
 31
0.0
  0
SPLINE
  5
2C7
100
AcDbEntity
  8
1
  6
CONTINUOUS
 62
           2
100
AcDbSpline
210
0.0
220
0.0
230
1.0
 70
           0
 71
           4
 72
          14
 73
          10
 74
          15
 42
0.00000000001
 43
0.00000000001
 44
0.00000000001
 40
0.0
 40
0.0
 40
0.0
 40
0.0
 40
0.1792743956181765
 40
0.3575171833814002
 40
0.4473841496266362
 40
0.6251465556584674
 40
0.7147511638409421
 40
0.8920336367813146
 40
1.0701909395413254
 40
1.0701909395413254
 40
1.0701909395413254
 40
1.0701909395413254
 10
323.80028140885253
 20
296.08488820425652
 30
0.0
 10
323.82244993341152
 20
295.99846457292853
 30
0.0
 10
323.8612943670762
 20
295.91722035833561
 30
0.0
 10
323.96789826202212
 20
295.77437043368752
 30
0.0
 10
324.03461462879409
 20
295.71416247717951
 30
0.0
 10
324.18725589293132
 20
295.62305749663062
 30
0.0
 10
324.27168723075351
 20
295.5930519137986
 30
0.0
 10
324.44712761531127
 20
295.56756178476638
 30
0.0
 10
324.53642001837312
 20
295.57232665359652
 30
0.0
 10
324.62077510878322
 20
295.59986982056938
 30
0.0
 11
323.80028140885253
 21
296.08488820425652
 31
0.0
 11
323.83330945373632
 21
295.98277103350432
 31
0.0
 11
323.87305984295182
 21
295.90871059064847
 31
0.0
 11
323.9253752638071
 21
295.83322833607076
 31
0.0
 11
323.978451654092
 21
295.76798719777065
 31
0.0
 11
324.00200591481257
 21
295.74447521081538
 31
0.0
 11
324.0298413517383
 21
295.72241035993005
 31
0.0
 11
324.11158194814516
 21
295.66957625687371
 31
0.0
 11
324.1968663620566
 21
295.62274050027492
 31
0.0
 11
324.22939434160673
 21
295.60878089342748
 31
0.0
 11
324.26118560646898
 21
295.59927557557012
 31
0.0
 11
324.34338054513444
 21
295.58377426118875
 31
0.0
 11
324.4341389541205
 21
295.57386172498366
 31
0.0
 11
324.51739573884697
 21
295.57506582156412
 31
0.0
 11
324.62077510878322
 21
295.59986982056938
 31
0.0
  0
SPLINE
  5
2C6
100
AcDbEntity
  8
1
  6
CONTINUOUS
 62
           2
100
AcDbSpline
210
0.0
220
0.0
230
1.0
 70
           0
 71
           4
 72
          10
 73
           6
 74
           7
 42
0.00000000001
 43
0.00000000001
 44
0.00000000001
 40
0.0
 40
0.0
 40
0.0
 40
0.0
 40
0.1958686206003507
 40
0.3916096190431023
 40
0.5878949836660626
 40
0.5878949836660626
 40
0.5878949836660626
 40
0.5878949836660626
 10
327.72937869910538
 20
300.91157187045337
 30
0.0
 10
327.6447954566413
 20
300.86256830692349
 30
0.0
 10
327.56600996181737
 20
300.80409185369172
 30
0.0
 10
327.42302551014251
 20
300.67041319028351
 30
0.0
 10
327.35928307710151
 20
300.59563779219872
 30
0.0
 10
327.30450040792522
 20
300.51434572865543
 30
0.0
 11
327.72937869910538
 21
300.91157187045337
 31
0.0
 11
327.63022517484069
 21
300.84945797616598
 31
0.0
 11
327.56186671526604
 21
300.79642536262969
 31
0.0
 11
327.49503927242813
 21
300.73679289864714
 31
0.0
 11
327.43103697399471
 21
300.67411841025739
 31
0.0
 11
327.37337278285094
 21
300.60932621730541
 31
0.0
 11
327.30450040792522
 21
300.51434572865543
 31
0.0
  0
SPLINE
  5
2C5
100
AcDbEntity
  8
1
  6
CONTINUOUS
 62
           2
100
AcDbSpline
210
0.0
220
0.0
230
1.0
 70
           0
 71
           4
 72
          10
 73
           6
 74
           7
 42
0.00000000001
 43
0.00000000001
 44
0.00000000001
 40
0.0
 40
0.0
 40
0.0
 40
0.0
 40
0.2028929169868411
 40
0.4056964604279245
 40
0.6090582340838876
 40
0.6090582340838876
 40
0.6090582340838876
 40
0.6090582340838876
 10
327.30450040792522
 20
300.51434572865543
 30
0.0
 10
327.25363185291741
 20
300.42682751548853
 30
0.0
 10
327.21316455783841
 20
300.33356329890171
 30
0.0
 10
327.15469374764513
 20
300.13937153391771
 30
0.0
 10
327.13689225271651
 20
300.03911492980961
 30
0.0
 10
327.13089006071442
 20
299.9377554670636
 30
0.0
 11
327.30450040792522
 21
300.51434572865543
 31
0.0
 11
327.24738911582983
 21
300.40748756316492
 31
0.0
 11
327.21353571603765
 21
300.32451682729572
 31
0.0
 11
327.18465953120358
 21
300.2363263072782
 31
0.0
 11
327.16003058360297
 21
300.14684066252693
 31
0.0
 11
327.14237663779346
 21
300.05873466279593
 31
0.0
 11
327.13089006071442
 21
299.9377554670636
 31
0.0
  0
SPLINE
  5
2C4
100
AcDbEntity
  8
1
  6
CONTINUOUS
 62
           2
100
AcDbSpline
210
0.0
220
0.0
230
1.0
 70
           0
 71
           4
 72
          10
 73
           6
 74
           7
 42
0.00000000001
 43
0.00000000001
 44
0.00000000001
 40
0.0
 40
0.0
 40
0.0
 40
0.0
 40
0.2541450830573031
 40
0.507655891604943
 40
0.7617972681910967
 40
0.7617972681910967
 40
0.7617972681910967
 40
0.7617972681910967
 10
327.13089006071442
 20
299.9377554670636
 30
0.0
 10
327.12417300081353
 20
299.81126450428337
 30
0.0
 10
327.13678185202713
 20
299.68441372058243
 30
0.0
 10
327.19977066678712
 20
299.43885285385971
 30
0.0
 10
327.24977775293951
 20
299.32159642728169
 30
0.0
 10
327.31655105678652
 20
299.21395910281171
 30
0.0
 11
327.13089006071442
 21
299.9377554670636
 31
0.0
 11
327.12987781742129
 21
299.7862329425401
 31
0.0
 11
327.14415756636174
 21
299.67503495762446
 31
0.0
 11
327.16944220213924
 21
299.56193174862892
 31
0.0
 11
327.20172157490674
 21
299.45062289235835
 31
0.0
 11
327.24272941842997
 21
299.34628295870402
 31
0.0
 11
327.31655105678652
 21
299.21395910281171
 31
0.0
  0
SPLINE
  5
2C3
100
AcDbEntity
  8
1
  6
CONTINUOUS
 62
           2
100
AcDbSpline
210
0.0
220
0.0
230
1.0
 70
           0
 71
           4
 72
          10
 73
           6
 74
           7
 42
0.00000000001
 43
0.00000000001
 44
0.00000000001
 40
0.0
 40
0.0
 40
0.0
 40
0.0
 40
0.179010557356461
 40
0.3573975868035239
 40
0.5359265315056908
 40
0.5359265315056908
 40
0.5359265315056908
 40
0.5359265315056908
 10
327.31655105678652
 20
299.21395910281171
 30
0.0
 10
327.36242580413551
 20
299.13730733849872
 30
0.0
 10
327.41840101417938
 20
299.06724136118362
 30
0.0
 10
327.54748589841051
 20
298.94411936908642
 30
0.0
 10
327.61999842688653
 20
298.89163291572061
 30
0.0
 10
327.69849483337413
 20
298.84965867427871
 30
0.0
 11
327.31655105678652
 21
299.21395910281171
 31
0.0
 11
327.37515841273631
 21
299.12457738452326
 31
0.0
 11
327.42605212085965
 21
299.06409826756237
 31
0.0
 11
327.48351892805891
 21
299.00617152420801
 31
0.0
 11
327.54409055780286
 21
298.95152366759521
 31
0.0
 11
327.60672048895555
 21
298.90371760254646
 31
0.0
 11
327.69849483337413
 21
298.84965867427871
 31
0.0
  0
SPLINE
  5
2C2
100
AcDbEntity
  8
1
  6
CONTINUOUS
 62
           2
100
AcDbSpline
210
0.0
220
0.0
230
1.0
 70
           0
 71
           4
 72
          12
 73
           8
 74
          11
 42
0.00000000001
 43
0.00000000001
 44
0.00000000001
 40
0.0
 40
0.0
 40
0.0
 40
0.0
 40
0.0813389567367426
 40
0.1623613653311508
 40
0.2033380778133811
 40
0.2843632483704451
 40
0.3657079752396986
 40
0.3657079752396986
 40
0.3657079752396986
 40
0.3657079752396986
 10
328.38238460913249
 20
300.12340563429962
 30
0.0
 10
328.36713237398021
 20
300.08597825208182
 30
0.0
 10
328.35995135311327
 20
300.04569010326361
 30
0.0
 10
328.36268023265438
 20
299.96471366279548
 30
0.0
 10
328.37255912152551
 20
299.92494560374649
 30
0.0
 10
328.4080409615392
 20
299.85210250322871
 30
0.0
 10
328.43324068989642
 20
299.8198552654456
 30
0.0
 10
328.46423499536218
 20
299.79391200041852
 30
0.0
 11
328.38238460913249
 21
300.12340563429962
 31
0.0
 11
328.36708410011443
 21
300.07727755000457
 31
0.0
 11
328.36228647993818
 21
300.03949529827139
 31
0.0
 11
328.36211500770463
 21
299.99776752624973
 31
0.0
 11
328.36511379129183
 21
299.95965464874587
 31
0.0
 11
328.36789670698101
 21
299.94489875010697
 31
0.0
 11
328.37234220519684
 21
299.93055592945831
 31
0.0
 11
328.38752704124732
 21
299.89546913565238
 31
0.0
 11
328.40720525459795
 21
299.85867077897973
 31
0.0
 11
328.42912630054104
 21
299.8275225532841
 31
0.0
 11
328.46423499536218
 21
299.79391200041852
 31
0.0
  0
SPLINE
  5
2C1
100
AcDbEntity
  8
1
  6
CONTINUOUS
 62
           2
100
AcDbSpline
210
0.0
220
0.0
230
1.0
 70
           0
 71
           4
 72
          10
 73
           6
 74
           7
 42
0.00000000001
 43
0.00000000001
 44
0.00000000001
 40
0.0
 40
0.0
 40
0.0
 40
0.0
 40
0.1327652292278729
 40
0.2653669463188828
 40
0.3982608123836979
 40
0.3982608123836979
 40
0.3982608123836979
 40
0.3982608123836979
 10
328.83227021603011
 20
300.41697636758261
 30
0.0
 10
328.76773902715809
 20
300.4018485481833
 30
0.0
 10
328.7050818490261
 20
300.37961621567138
 30
0.0
 10
328.58577526341628
 20
300.32174433989729
 30
0.0
 10
328.52948755958028
 20
300.28628024770552
 30
0.0
 10
328.47758046083732
 20
300.24492751255769
 30
0.0
 11
328.83227021603011
 21
300.41697636758261
 31
0.0
 11
328.75568614004288
 21
300.39627674498723
 31
0.0
 11
328.70082842012198
 21
300.37551535045219
 31
0.0
 11
328.64564712471201
 21
300.35027713012346
 31
0.0
 11
328.59166163342849
 21
300.32256394659453
 31
0.0
 11
328.5413364894041
 21
300.29230345252864
 31
0.0
 11
328.47758046083732
 21
300.24492751255769
 31
0.0
  0
SPLINE
  5
2C0
100
AcDbEntity
  8
1
  6
CONTINUOUS
 62
           2
100
AcDbSpline
210
0.0
220
0.0
230
1.0
 70
           0
 71
           4
 72
           8
 73
           4
 74
           3
 42
0.00000000001
 43
0.00000000001
 44
0.00000000001
 40
0.0
 40
0.0
 40
0.0
 40
0.0
 40
0.1567450137318275
 40
0.1567450137318275
 40
0.1567450137318275
 40
0.1567450137318275
 10
328.47758046083732
 20
300.24492751255769
 30
0.0
 10
328.43755940840742
 20
300.21176904534161
 30
0.0
 10
328.40509748924819
 20
300.17032991414629
 30
0.0
 10
328.38238460913249
 20
300.12340563429962
 30
0.0
 11
328.47758046083732
 21
300.24492751255769
 31
0.0
 11
328.42349197036708
 21
300.18932875316511
 31
0.0
 11
328.38238460913249
 21
300.12340563429962
 31
0.0
  0
SPLINE
  5
2BF
100
AcDbEntity
  8
1
  6
CONTINUOUS
 62
           2
100
AcDbSpline
210
0.0
220
0.0
230
1.0
 70
           0
 71
           4
 72
           8
 73
           4
 74
           3
 42
0.00000000001
 43
0.00000000001
 44
0.00000000001
 40
0.0
 40
0.0
 40
0.0
 40
0.0
 40
0.8593992128004299
 40
0.8593992128004299
 40
0.8593992128004299
 40
0.8593992128004299
 10
328.52435854614009
 20
301.2161376280655
 30
0.0
 10
328.24366054569441
 20
301.16111472414542
 30
0.0
 10
327.97609132065151
 20
301.05603328993669
 30
0.0
 10
327.72937869910538
 20
300.91157187045337
 30
0.0
 11
328.52435854614009
 21
301.2161376280655
 31
0.0
 11
328.11412410553538
 21
301.09739419259563
 31
0.0
 11
327.72937869910538
 21
300.91157187045337
 31
0.0
  0
SPLINE
  5
2BE
100
AcDbEntity
  8
1
  6
CONTINUOUS
 62
           2
100
AcDbSpline
210
0.0
220
0.0
230
1.0
 70
           0
 71
           4
 72
          10
 73
           6
 74
           7
 42
0.00000000001
 43
0.00000000001
 44
0.00000000001
 40
0.0
 40
0.0
 40
0.0
 40
0.0
 40
0.3438606183301767
 40
0.6867513520962907
 40
1.0299465062979378
 40
1.0299465062979378
 40
1.0299465062979378
 40
1.0299465062979378
 10
327.69849483337413
 20
298.84965867427871
 30
0.0
 10
327.85619854382941
 20
298.78172955903352
 30
0.0
 10
328.02115248315732
 20
298.7324798776005
 30
0.0
 10
328.35890244058743
 20
298.67332734968642
 30
0.0
 10
328.53055122668911
 20
298.66362542602462
 30
0.0
 10
328.70150951168148
 20
298.67399365212071
 30
0.0
 11
327.69849483337413
 21
298.84965867427871
 31
0.0
 11
327.88999468857753
 21
298.77511579580721
 31
0.0
 11
328.03649106178307
 21
298.73486919156926
 31
0.0
 11
328.19034877237669
 21
298.70411748845447
 31
0.0
 11
328.34547966981728
 21
298.6807636922544
 31
0.0
 11
328.49658864001026
 21
298.66888365540228
 31
0.0
 11
328.70150951168148
 21
298.67399365212071
 31
0.0
  0
SPLINE
  5
2BD
100
AcDbEntity
  8
1
  6
CONTINUOUS
 62
           2
100
AcDbSpline
210
0.0
220
0.0
230
1.0
 70
           0
 71
           4
 72
           8
 73
           4
 74
           3
 42
0.00000000001
 43
0.00000000001
 44
0.00000000001
 40
0.0
 40
0.0
 40
0.0
 40
0.0
 40
0.691425607772963
 40
0.691425607772963
 40
0.691425607772963
 40
0.691425607772963
 10
328.70150951168148
 20
298.67399365212071
 30
0.0
 10
328.93193161582622
 20
298.66868350627561
 30
0.0
 10
329.16240088305608
 20
298.66633057261862
 30
0.0
 10
329.3928611362951
 20
298.66693542467738
 30
0.0
 11
328.70150951168148
 21
298.67399365212071
 31
0.0
 11
329.04717101807796
 21
298.66824641418515
 31
0.0
 11
329.3928611362951
 21
298.66693542467738
 31
0.0
  0
SPLINE
  5
2BC
100
AcDbEntity
  8
1
  6
CONTINUOUS
 62
           2
100
AcDbSpline
210
0.0
220
0.0
230
1.0
 70
           0
 71
           4
 72
          10
 73
           6
 74
           7
 42
0.00000000001
 43
0.00000000001
 44
0.00000000001
 40
0.0
 40
0.0
 40
0.0
 40
0.0
 40
0.1460286562220828
 40
0.2916659170878194
 40
0.4374240496897402
 40
0.4374240496897402
 40
0.4374240496897402
 40
0.4374240496897402
 10
329.81978901964408
 20
298.59623594289837
 30
0.0
 10
329.7523640579991
 20
298.62402484972262
 30
0.0
 10
329.68206117421852
 20
298.64405870119259
 30
0.0
 10
329.53838070173629
 20
298.66785226292171
 30
0.0
 10
329.46546396386822
 20
298.67153565604059
 30
0.0
 10
329.3928611362951
 20
298.66693542467738
 30
0.0
 11
329.81978901964408
 21
298.59623594289837
 31
0.0
 11
329.73799401500264
 21
298.62668959248191
 31
0.0
 11
329.67557459041689
 21
298.64304059536471
 31
0.0
 11
329.61009359521029
 21
298.65545301237671
 31
0.0
 11
329.54411511970096
 21
298.66480646613087
 31
0.0
 11
329.4798975643937
 21
298.66942855569368
 31
0.0
 11
329.3928611362951
 21
298.66693542467738
 31
0.0
  0
SPLINE
  5
2BB
100
AcDbEntity
  8
1
  6
CONTINUOUS
 62
           2
100
AcDbSpline
210
0.0
220
0.0
230
1.0
 70
           0
 71
           4
 72
          16
 73
          12
 74
          19
 42
0.00000000001
 43
0.00000000001
 44
0.00000000001
 40
0.0
 40
0.0
 40
0.0
 40
0.0
 40
0.102161614591925
 40
0.2040210981238669
 40
0.2555555702479989
 40
0.357641098060441
 40
0.4092374408417174
 40
0.5113216105690989
 40
0.5628548235025942
 40
0.6647110930261195
 40
0.7668694768664511
 40
0.7668694768664511
 40
0.7668694768664511
 40
0.7668694768664511
 10
329.97775510774932
 20
297.98040772553651
 30
0.0
 10
330.01321654441631
 20
298.0167473249445
 30
0.0
 10
330.0408259408091
 20
298.06008698678261
 30
0.0
 10
330.07688928652919
 20
298.1553486762536
 30
0.0
 10
330.08495602622338
 20
298.20624788575452
 30
0.0
 10
330.08015124072932
 20
298.3082202792005
 30
0.0
 10
330.06733130418911
 20
298.35819859265251
 30
0.0
 10
330.02245892472638
 20
298.44989181634043
 30
0.0
 10
329.99088827341922
 20
298.4906222228114
 30
0.0
 10
329.91342459857628
 20
298.5567590410073
 30
0.0
 10
329.86836329712719
 20
298.58145534631672
 30
0.0
 10
329.81978901964408
 20
298.59623594289837
 30
0.0
 11
329.97775510774932
 21
297.98040772553651
 31
0.0
 11
330.01746161062545
 21
298.02679385193795
 31
0.0
 11
330.04116308680278
 21
298.068353376191
 31
0.0
 11
330.06154045048868
 21
298.1167058265429
 31
0.0
 11
330.07658171814001
 21
298.16237045361925
 31
0.0
 11
330.0805631854505
 21
298.18104347686818
 31
0.0
 11
330.08240923918453
 21
298.20132277979326
 31
0.0
 11
330.08186165330153
 21
298.25718731487837
 31
0.0
 11
330.07715784058638
 21
298.31286347531244
 31
0.0
 11
330.07331845685019
 21
298.33310112533934
 31
0.0
 11
330.06694238367629
 21
298.35268811570739
 31
0.0
 11
330.04426592941229
 21
298.40375336753493
 31
0.0
 11
330.01785577711274
 21
298.45298297490183
 31
0.0
 11
330.00647641410535
 21
298.46986921721003
 31
0.0
 11
329.99399843092095
 21
298.48431964228655
 31
0.0
 11
329.95883422643504
 21
298.51710415086961
 31
0.0
 11
329.91769906719588
 21
298.54967576828614
 31
0.0
 11
329.87691998938249
 21
298.57469305924718
 31
0.0
 11
329.81978901964408
 21
298.59623594289837
 31
0.0
  0
SPLINE
  5
2BA
100
AcDbEntity
  8
1
  6
CONTINUOUS
 62
           2
100
AcDbSpline
210
0.0
220
0.0
230
1.0
 70
           0
 71
           4
 72
          10
 73
           6
 74
           7
 42
0.00000000001
 43
0.00000000001
 44
0.00000000001
 40
0.0
 40
0.0
 40
0.0
 40
0.0
 40
0.134395949991585
 40
0.268310756659834
 40
0.4026100497493335
 40
0.4026100497493335
 40
0.4026100497493335
 40
0.4026100497493335
 10
329.64089545448837
 20
297.76777218347752
 30
0.0
 10
329.70376775629512
 20
297.79155104974228
 30
0.0
 10
329.76478262325531
 20
297.81965730785453
 30
0.0
 10
329.87862884362522
 20
297.89017123238352
 30
0.0
 10
329.93103372788352
 20
297.9323147528907
 30
0.0
 10
329.97775510774932
 20
297.98040772553651
 30
0.0
 11
329.64089545448837
 21
297.76777218347752
 31
0.0
 11
329.71547595660911
 21
297.79796996046292
 31
0.0
 11
329.76861923949383
 21
297.82444621305876
 31
0.0
 11
329.8214516264029
 21
297.85536024572963
 31
0.0
 11
329.87267737594385
 21
297.88889934601809
 31
0.0
 11
329.91973935507019
 21
297.92498621108467
 31
0.0
 11
329.97775510774932
 21
297.98040772553651
 31
0.0
  0
SPLINE
  5
2B9
100
AcDbEntity
  8
1
  6
CONTINUOUS
 62
           2
100
AcDbSpline
210
0.0
220
0.0
230
1.0
 70
           0
 71
           4
 72
           8
 73
           4
 74
           3
 42
0.00000000001
 43
0.00000000001
 44
0.00000000001
 40
0.0
 40
0.0
 40
0.0
 40
0.0
 40
0.721181213927196
 40
0.721181213927196
 40
0.721181213927196
 40
0.721181213927196
 10
329.79258547858831
 20
296.91609976884757
 30
0.0
 10
330.02722951909851
 20
296.96684499790371
 30
0.0
 10
330.2547587870381
 20
297.04619139682671
 30
0.0
 10
330.47014386188607
 20
297.15239352260352
 30
0.0
 11
329.79258547858831
 21
296.91609976884757
 31
0.0
 11
330.13858678236056
 21
297.01345030945532
 31
0.0
 11
330.47014386188607
 21
297.15239352260352
 31
0.0
  0
SPLINE
  5
2B8
100
AcDbEntity
  8
1
  6
CONTINUOUS
 62
           2
100
AcDbSpline
210
0.0
220
0.0
230
1.0
 70
           0
 71
           4
 72
           8
 73
           4
 74
           3
 42
0.00000000001
 43
0.00000000001
 44
0.00000000001
 40
0.0
 40
0.0
 40
0.0
 40
0.0
 40
0.7170841555061635
 40
0.7170841555061635
 40
0.7170841555061635
 40
0.7170841555061635
 10
330.47014386188607
 20
297.15239352260352
 30
0.0
 10
330.6840694121222
 20
297.25709731308081
 30
0.0
 10
330.87731252520621
 20
297.3999070334695
 30
0.0
 10
331.04056672071852
 20
297.57394504738141
 30
0.0
 11
330.47014386188607
 21
297.15239352260352
 31
0.0
 11
330.77435704932373
 21
297.33716895120449
 31
0.0
 11
331.04056672071852
 21
297.57394504738141
 31
0.0
  0
SPLINE
  5
2B7
100
AcDbEntity
  8
1
  6
CONTINUOUS
 62
           2
100
AcDbSpline
210
0.0
220
0.0
230
1.0
 70
           0
 71
           4
 72
          10
 73
           6
 74
           7
 42
0.00000000001
 43
0.00000000001
 44
0.00000000001
 40
0.0
 40
0.0
 40
0.0
 40
0.0
 40
0.2453923349798527
 40
0.4903691918365518
 40
0.7366339261787236
 40
0.7366339261787236
 40
0.7366339261787236
 40
0.7366339261787236
 10
331.04056672071852
 20
297.57394504738141
 30
0.0
 10
331.12337948233022
 20
297.66377453307842
 30
0.0
 10
331.19031103601952
 20
297.76722555838637
 30
0.0
 10
331.28664950266011
 20
297.99246445431851
 30
0.0
 10
331.31535073033552
 20
298.11260243598059
 30
0.0
 10
331.32334848927422
 20
298.23508753345061
 30
0.0
 11
331.04056672071852
 21
297.57394504738141
 31
0.0
 11
331.13387406840087
 21
297.68635689850436
 31
0.0
 11
331.18966653770917
 21
297.77895492684081
 31
0.0
 11
331.23723092383227
 21
297.88022722154346
 31
0.0
 11
331.27764151934093
 21
297.98459306215528
 31
0.0
 11
331.30624121012886
 21
298.08932697428287
 31
0.0
 11
331.32334848927422
 21
298.23508753345061
 31
0.0
  0
SPLINE
  5
2B6
100
AcDbEntity
  8
1
  6
CONTINUOUS
 62
           2
100
AcDbSpline
210
0.0
220
0.0
230
1.0
 70
           0
 71
           4
 72
          10
 73
           6
 74
           7
 42
0.00000000001
 43
0.00000000001
 44
0.00000000001
 40
0.0
 40
0.0
 40
0.0
 40
0.0
 40
0.2761522908124546
 40
0.5518867123927722
 40
0.8280592852366644
 40
0.8280592852366644
 40
0.8280592852366644
 40
0.8280592852366644
 10
331.32334848927422
 20
298.23508753345061
 30
0.0
 10
331.32400098438052
 20
298.37288660830461
 30
0.0
 10
331.30808492238521
 20
298.51031973342162
 30
0.0
 10
331.2438100694701
 20
298.7784581576114
 30
0.0
 10
331.19568743426112
 20
298.90817827481243
 30
0.0
 10
331.13262933644643
 20
299.03071958522543
 30
0.0
 11
331.32334848927422
 21
298.23508753345061
 31
0.0
 11
331.31809930081857
 21
298.39993393388272
 31
0.0
 11
331.30133218060882
 21
298.52075851080571
 31
0.0
 11
331.27494341243795
 21
298.64414490249817
 31
0.0
 11
331.24252542038982
 21
298.76608673898892
 31
0.0
 11
331.20269007763119
 21
298.88139266535006
 31
0.0
 11
331.13262933644643
 21
299.03071958522543
 31
0.0
  0
SPLINE
  5
2B5
100
AcDbEntity
  8
1
  6
CONTINUOUS
 62
           2
100
AcDbSpline
210
0.0
220
0.0
230
1.0
 70
           0
 71
           4
 72
           8
 73
           4
 74
           3
 42
0.00000000001
 43
0.00000000001
 44
0.00000000001
 40
0.0
 40
0.0
 40
0.0
 40
0.0
 40
0.355419321672074
 40
0.355419321672074
 40
0.355419321672074
 40
0.355419321672074
 10
331.13262933644643
 20
299.03071958522543
 30
0.0
 10
331.07766339153142
 20
299.1355097556355
 30
0.0
 10
331.0070196447391
 20
299.23120817590348
 30
0.0
 10
330.92318435016551
 20
299.31444681134229
 30
0.0
 11
331.13262933644643
 21
299.03071958522543
 31
0.0
 11
331.03873284942796
 21
299.18066502389809
 31
0.0
 11
330.92318435016551
 21
299.31444681134229
 31
0.0
  0
SPLINE
  5
2B4
100
AcDbEntity
  8
1
  6
CONTINUOUS
 62
           2
100
AcDbSpline
210
0.0
220
0.0
230
1.0
 70
           0
 71
           4
 72
          10
 73
           6
 74
           7
 42
0.00000000001
 43
0.00000000001
 44
0.00000000001
 40
0.0
 40
0.0
 40
0.0
 40
0.0
 40
0.182182338625817
 40
0.3638327712260561
 40
0.5455508034910385
 40
0.5455508034910385
 40
0.5455508034910385
 40
0.5455508034910385
 10
330.92318435016551
 20
299.31444681134229
 30
0.0
 10
330.85607798725852
 20
299.37588092203242
 30
0.0
 10
330.78222605333622
 20
299.42939451654161
 30
0.0
 10
330.6239232617761
 20
299.51848495288652
 30
0.0
 10
330.53999393705732
 20
299.55376828381952
 30
0.0
 10
330.45293011991322
 20
299.57909883771259
 30
0.0
 11
330.92318435016551
 21
299.31444681134229
 31
0.0
 11
330.84035961171168
 21
299.38513407009589
 31
0.0
 11
330.77416447282786
 21
299.43095247401152
 31
0.0
 11
330.70269081109666
 21
299.47341006073594
 31
0.0
 11
330.62931825474271
 21
299.51246213482403
 31
0.0
 11
330.55601617561359
 21
299.54515447913656
 31
0.0
 11
330.45293011991322
 21
299.57909883771259
 31
0.0
  0
SPLINE
  5
2B3
100
AcDbEntity
  8
1
  6
CONTINUOUS
 62
           2
100
AcDbSpline
210
0.0
220
0.0
230
1.0
 70
           0
 71
           4
 72
           8
 73
           4
 74
           3
 42
0.00000000001
 43
0.00000000001
 44
0.00000000001
 40
0.0
 40
0.0
 40
0.0
 40
0.0
 40
0.591486405532914
 40
0.591486405532914
 40
0.591486405532914
 40
0.591486405532914
 10
330.45293011991322
 20
299.57909883771259
 30
0.0
 10
330.26507012633238
 20
299.63824396204672
 30
0.0
 10
330.06942959645721
 20
299.66812900796759
 30
0.0
 10
329.87280409550408
 20
299.66771591971963
 30
0.0
 11
330.45293011991322
 21
299.57909883771259
 31
0.0
 11
330.16615417297328
 21
299.6457417084344
 31
0.0
 11
329.87280409550408
 21
299.66771591971963
 31
0.0
  0
SPLINE
  5
2B2
100
AcDbEntity
  8
1
  6
CONTINUOUS
 62
           2
100
AcDbSpline
210
0.0
220
0.0
230
1.0
 70
           0
 71
           4
 72
           8
 73
           4
 74
           3
 42
0.00000000001
 43
0.00000000001
 44
0.00000000001
 40
0.0
 40
0.0
 40
0.0
 40
0.0
 40
0.6274222355937174
 40
0.6274222355937174
 40
0.6274222355937174
 40
0.6274222355937174
 10
329.87280409550408
 20
299.66771591971963
 30
0.0
 10
329.66366539518532
 20
299.66965897031849
 30
0.0
 10
329.4545204109661
 20
299.66881213883471
 30
0.0
 10
329.24542421987348
 20
299.66517564827672
 30
0.0
 11
329.87280409550408
 21
299.66771591971963
 31
0.0
 11
329.55909821672901
 21
299.66853811193198
 31
0.0
 11
329.24542421987348
 21
299.66517564827672
 31
0.0
  0
SPLINE
  5
2B1
100
AcDbEntity
  8
1
  6
CONTINUOUS
 62
           2
100
AcDbSpline
210
0.0
220
0.0
230
1.0
 70
           0
 71
           4
 72
           8
 73
           4
 74
           3
 42
0.00000000001
 43
0.00000000001
 44
0.00000000001
 40
0.0
 40
0.0
 40
0.0
 40
0.0
 40
0.5063676213018267
 40
0.5063676213018267
 40
0.5063676213018267
 40
0.5063676213018267
 10
328.74063450144132
 20
299.68603806040852
 30
0.0
 10
328.90809876291843
 20
299.66520677545952
 30
0.0
 10
329.07692775407008
 20
299.65822925617761
 30
0.0
 10
329.24542421987348
 20
299.66517564827672
 30
0.0
 11
328.74063450144132
 21
299.68603806040852
 31
0.0
 11
328.99264228403501
 21
299.66519022544958
 31
0.0
 11
329.24542421987348
 21
299.66517564827672
 31
0.0
  0
SPLINE
  5
2B0
100
AcDbEntity
  8
1
  6
CONTINUOUS
 62
           2
100
AcDbSpline
210
0.0
220
0.0
230
1.0
 70
           0
 71
           4
 72
          10
 73
           6
 74
           7
 42
0.00000000001
 43
0.00000000001
 44
0.00000000001
 40
0.0
 40
0.0
 40
0.0
 40
0.0
 40
0.1014752105538894
 40
0.2024201819908753
 40
0.3035529002988007
 40
0.3035529002988007
 40
0.3035529002988007
 40
0.3035529002988007
 10
328.46423499536218
 20
299.79391200041852
 30
0.0
 10
328.50287469992151
 20
299.76124582385262
 30
0.0
 10
328.5465869076711
 20
299.73521151038761
 30
0.0
 10
328.6406237488452
 20
299.69851055998561
 30
0.0
 10
328.69030260194609
 20
299.6880959599244
 30
0.0
 10
328.74063450144132
 20
299.68603806040852
 30
0.0
 11
328.46423499536218
 21
299.79391200041852
 31
0.0
 11
328.51233729190506
 21
299.75722109159665
 31
0.0
 11
328.5514750727109
 21
299.73553555465674
 31
0.0
 11
328.5938457956766
 21
299.71732608397321
 31
0.0
 11
328.63734102388219
 21
299.70203113270196
 31
0.0
 11
328.68065045296373
 21
299.69153517084806
 31
0.0
 11
328.74063450144132
 21
299.68603806040852
 31
0.0
  0
SPLINE
  5
2AF
100
AcDbEntity
  8
1
  6
CONTINUOUS
 62
           2
100
AcDbSpline
210
0.0
220
0.0
230
1.0
 70
           0
 71
           4
 72
          14
 73
          10
 74
          15
 42
0.00000000001
 43
0.00000000001
 44
0.00000000001
 40
0.0
 40
0.0
 40
0.0
 40
0.0
 40
0.1327556732444573
 40
0.2657206971622688
 40
0.3329262409944837
 40
0.4662525153393551
 40
0.5336548216234243
 40
0.6673400645851334
 40
0.8017967217537177
 40
0.8017967217537177
 40
0.8017967217537177
 40
0.8017967217537177
 10
334.01532007765542
 20
301.74990924961571
 30
0.0
 10
334.07964393895651
 20
301.76641126095262
 30
0.0
 10
334.14111958846138
 20
301.79136932748457
 30
0.0
 10
334.2472492956731
 20
301.87147040633261
 30
0.0
 10
334.29192091616528
 20
301.92168028030562
 30
0.0
 10
334.35937532213438
 20
302.03668375219252
 30
0.0
 10
334.38149808181629
 20
302.10035206767571
 30
0.0
 10
334.40000786470932
 20
302.23274969651771
 30
0.0
 10
334.39621377396429
 20
302.3001835296327
 30
0.0
 10
334.37958738054641
 20
302.36500125312853
 30
0.0
 11
334.01532007765542
 21
301.74990924961571
 31
0.0
 11
334.09152426699137
 21
301.77335776574654
 31
0.0
 11
334.14686960157519
 21
301.80107770603178
 31
0.0
 11
334.20331893136796
 21
301.83953120341482
 31
0.0
 11
334.25188729328875
 21
301.87933921217461
 31
0.0
 11
334.26937128264592
 21
301.89707874502096
 31
0.0
 11
334.28571749993318
 21
301.91800185308739
 31
0.0
 11
334.32487416291286
 21
301.97958374063256
 31
0.0
 11
334.3595356976968
 21
302.04382933935085
 31
0.0
 11
334.36986869735927
 21
302.0683846864614
 31
0.0
 11
334.37686491078631
 21
302.09234572248204
 31
0.0
 11
334.38820393412948
 21
302.15439815590474
 31
0.0
 11
334.39534557476992
 21
302.22290830770061
 31
0.0
 11
334.39474038849761
 21
302.28594612369722
 31
0.0
 11
334.37958738054641
 21
302.36500125312853
 31
0.0
  0
SPLINE
  5
2AE
100
AcDbEntity
  8
1
  6
CONTINUOUS
 62
           2
100
AcDbSpline
210
0.0
220
0.0
230
1.0
 70
           0
 71
           4
 72
          14
 73
          10
 74
          15
 42
0.00000000001
 43
0.00000000001
 44
0.00000000001
 40
0.0
 40
0.0
 40
0.0
 40
0.0
 40
0.1376827787784493
 40
0.2741499131597219
 40
0.3429543091909437
 40
0.4790536513085242
 40
0.5476571794481037
 40
0.6833890727928488
 40
0.8196411759629123
 40
0.8196411759629123
 40
0.8196411759629123
 40
0.8196411759629123
 10
337.53265635217917
 20
302.97301294528347
 30
0.0
 10
337.50840419528618
 20
303.03732842981429
 30
0.0
 10
337.47866392576111
 20
303.09953103161263
 30
0.0
 10
337.39704531869211
 20
303.20890050517062
 30
0.0
 10
337.34596560038221
 20
303.25499722187152
 30
0.0
 10
337.22909963252852
 20
303.3247494726055
 30
0.0
 10
337.1644568895083
 20
303.34772249696061
 30
0.0
 10
337.03013534508142
 20
303.36723837700038
 30
0.0
 10
336.96177084898642
 20
303.36359027430251
 30
0.0
 10
336.8961027545281
 20
303.3467607881575
 30
0.0
 11
337.53265635217917
 21
302.97301294528347
 31
0.0
 11
337.50098131464927
 21
303.04960878512082
 31
0.0
 11
337.4695772104804
 21
303.10616912292187
 31
0.0
 11
337.42956088197036
 21
303.16389466316133
 31
0.0
 11
337.38895855472862
 21
303.21379681324885
 31
0.0
 11
337.37093079412938
 21
303.23179017806683
 31
0.0
 11
337.34962014062819
 21
303.24868243664093
 31
0.0
 11
337.28703749650469
 21
303.28913354679372
 31
0.0
 11
337.22174161710444
 21
303.32499217294009
 31
0.0
 11
337.19683688429558
 21
303.33568006935582
 31
0.0
 11
337.17249320787454
 21
303.34295808530271
 31
0.0
 11
337.10954207888449
 21
303.3548288117226
 31
0.0
 11
337.04002860512725
 21
303.36241870468126
 31
0.0
 11
336.97618741670112
 21
303.36202546987613
 31
0.0
 11
336.8961027545281
 21
303.3467607881575
 31
0.0
  0
SPLINE
  5
2AD
100
AcDbEntity
  8
1
  6
CONTINUOUS
 62
           2
100
AcDbSpline
210
0.0
220
0.0
230
1.0
 70
           0
 71
           4
 72
          12
 73
           8
 74
          11
 42
0.00000000001
 43
0.00000000001
 44
0.00000000001
 40
0.0
 40
0.0
 40
0.0
 40
0.0
 40
0.1576777879060677
 40
0.314145284146018
 40
0.3931326415403617
 40
0.5491290704745903
 40
0.7058268889413979
 40
0.7058268889413979
 40
0.7058268889413979
 40
0.7058268889413979
 10
339.28316145214723
 20
303.55174910710161
 30
0.0
 10
339.24250610577838
 20
303.61883493452137
 30
0.0
 10
339.18813783806149
 20
303.67647330093462
 30
0.0
 10
339.05923276878548
 20
303.76516129614561
 30
0.0
 10
338.98617691174718
 20
303.79519202008862
 30
0.0
 10
338.83261036105142
 20
303.82261829121029
 30
0.0
 10
338.75386393890932
 20
303.81969874770851
 30
0.0
 10
338.67840575547848
 20
303.80035835245559
 30
0.0
 11
339.28316145214723
 21
303.55174910710161
 31
0.0
 11
339.22900082848469
 21
303.62894723859108
 31
0.0
 11
339.17567513545339
 21
303.68002855424527
 31
0.0
 11
339.11111212556381
 21
303.72816859977951
 31
0.0
 11
339.04851594915618
 21
303.76716040794253
 31
0.0
 11
339.02244694872491
 21
303.77967939883598
 31
0.0
 11
338.99509434240719
 21
303.78910641831266
 31
0.0
 11
338.92333238371504
 21
303.80532578697239
 31
0.0
 11
338.84379912088809
 21
303.81639323463935
 31
0.0
 11
338.77047163644295
 21
303.81741665145393
 31
0.0
 11
338.67840575547848
 21
303.80035835245559
 31
0.0
  0
SPLINE
  5
2AC
100
AcDbEntity
  8
1
  6
CONTINUOUS
 62
           2
100
AcDbSpline
210
0.0
220
0.0
230
1.0
 70
           0
 71
           4
 72
          14
 73
          10
 74
          15
 42
0.00000000001
 43
0.00000000001
 44
0.00000000001
 40
0.0
 40
0.0
 40
0.0
 40
0.0
 40
0.1521148469421355
 40
0.3034602782366453
 40
0.379599546444293
 40
0.5305594179534627
 40
0.6065058424448446
 40
0.7571307198726961
 40
0.9081995752299985
 40
0.9081995752299985
 40
0.9081995752299985
 40
0.9081995752299985
 10
342.29929461886218
 20
304.17344006663058
 30
0.0
 10
342.26690703334339
 20
304.24197554855942
 30
0.0
 10
342.22301980922322
 20
304.30440500116759
 30
0.0
 10
342.11612057363851
 20
304.41154039683647
 30
0.0
 10
342.05391196512051
 20
304.45544116208549
 30
0.0
 10
341.91746872079011
 20
304.52003314210361
 30
0.0
 10
341.84425952640208
 20
304.54023891479562
 30
0.0
 10
341.69432911057152
 20
304.55468620205062
 30
0.0
 10
341.61873469361041
 20
304.54881913779161
 30
0.0
 10
341.54584686913751
 20
304.53012444959552
 30
0.0
 11
342.29929461886218
 21
304.17344006663058
 31
0.0
 11
342.25590027998777
 21
304.25369649592812
 31
0.0
 11
342.21246316953409
 21
304.3103969981446
 31
0.0
 11
342.15905543076036
 21
304.36732374303614
 31
0.0
 11
342.10674570062309
 21
304.41602837952092
 31
0.0
 11
342.08444586802403
 21
304.43329358329851
 31
0.0
 11
342.05891376190812
 21
304.44924143164371
 31
0.0
 11
341.98527917972569
 21
304.48697225681565
 31
0.0
 11
341.9094380960475
 21
304.51999040056512
 31
0.0
 11
341.88099979523554
 21
304.52958923041552
 31
0.0
 11
341.85357040602321
 21
304.53585348460183
 31
0.0
 11
341.78304128944342
 21
304.54529210110445
 31
0.0
 11
341.70551884284282
 21
304.55032979516062
 31
0.0
 11
341.6346665460303
 21
304.54777282737626
 31
0.0
 11
341.54584686913751
 21
304.53012444959552
 31
0.0
  0
SPLINE
  5
2AB
100
AcDbEntity
  8
1
  6
CONTINUOUS
 62
           2
100
AcDbSpline
210
0.0
220
0.0
230
1.0
 70
           0
 71
           4
 72
          14
 73
          10
 74
          15
 42
0.00000000001
 43
0.00000000001
 44
0.00000000001
 40
0.0
 40
0.0
 40
0.0
 40
0.0
 40
0.1447575137884713
 40
0.2890995123150115
 40
0.3618674473894723
 40
0.5065272364018542
 40
0.5794781072163682
 40
0.7245045166230426
 40
0.8702592220651095
 40
0.8702592220651095
 40
0.8702592220651095
 40
0.8702592220651095
 10
341.29789553583419
 20
299.84421460025362
 30
0.0
 10
341.36775087839737
 20
299.86209804420349
 30
0.0
 10
341.43400667064111
 20
299.89189903225162
 30
0.0
 10
341.55357741066632
 20
299.97275353533252
 30
0.0
 10
341.60601058561838
 20
300.02321078990951
 30
0.0
 10
341.69162867311547
 20
300.13981266661159
 30
0.0
 10
341.72418219621409
 20
300.20509740974859
 30
0.0
 10
341.76595710451147
 20
300.34397691313961
 30
0.0
 10
341.77487042120651
 20
300.41654750834653
 30
0.0
 10
341.7714233853012
 20
300.48910445393471
 30
0.0
 11
341.29789553583419
 21
299.84421460025362
 31
0.0
 11
341.38067098757682
 21
299.87027926287959
 31
0.0
 11
341.44144056442246
 21
299.90066550720456
 31
0.0
 11
341.50437270987618
 21
299.94044587157379
 31
0.0
 11
341.55942698998444
 21
299.9806884001581
 31
0.0
 11
341.57966183794781
 21
299.9985018452461
 31
0.0
 11
341.59924190184745
 21
300.01956635604671
 31
0.0
 11
341.6481310447079
 21
300.08196513689785
 31
0.0
 11
341.69305049534489
 21
300.147304743777
 31
0.0
 11
341.70733859888941
 21
300.17236067665408
 31
0.0
 11
341.718324421087
 21
300.19704844593258
 31
0.0
 11
341.74043011096961
 21
300.26187639002507
 31
0.0
 11
341.75978329969757
 21
300.33413319968588
 31
0.0
 11
341.77087821881196
 21
300.4016742710379
 31
0.0
 11
341.7714233853012
 21
300.48910445393471
 31
0.0
  0
SPLINE
  5
2AA
100
AcDbEntity
  8
1
  6
CONTINUOUS
 62
           2
100
AcDbSpline
210
0.0
220
0.0
230
1.0
 70
           0
 71
           4
 72
          12
 73
           8
 74
          11
 42
0.00000000001
 43
0.00000000001
 44
0.00000000001
 40
0.0
 40
0.0
 40
0.0
 40
0.0
 40
0.175290117939544
 40
0.3498316064738994
 40
0.4381560058283688
 40
0.6132059769006215
 40
0.789563686786305
 40
0.789563686786305
 40
0.789563686786305
 40
0.789563686786305
 10
344.02453830158453
 20
300.53816048189452
 30
0.0
 10
344.1091361295255
 20
300.55915808218259
 30
0.0
 10
344.18840815831942
 20
300.59765519738681
 30
0.0
 10
344.32622709374141
 20
300.70475642174461
 30
0.0
 10
344.38326900869311
 20
300.77219097861251
 30
0.0
 10
344.46636910956232
 20
300.92625870919852
 30
0.0
 10
344.49151983701108
 20
301.01120945334861
 30
0.0
 10
344.49867322224151
 20
301.0986795019374
 30
0.0
 11
344.02453830158453
 21
300.53816048189452
 31
0.0
 11
344.12435245036568
 21
300.57006497073462
 31
0.0
 11
344.19630202126291
 21
300.60954154402981
 31
0.0
 11
344.26928244711615
 21
300.66198723455773
 31
0.0
 11
344.33198840703307
 21
300.71534874468318
 31
0.0
 11
344.35424871023906
 21
300.73882611389456
 31
0.0
 11
344.37371166888158
 21
300.76465286871041
 31
0.0
 11
344.41607510246337
 21
300.83547482756614
 31
0.0
 11
344.45588412025404
 21
300.91632866167191
 31
0.0
 11
344.48322623480129
 21
300.99429557002537
 31
0.0
 11
344.49867322224151
 21
301.0986795019374
 31
0.0
  0
SPLINE
  5
2A9
100
AcDbEntity
  8
1
  6
CONTINUOUS
 62
           2
100
AcDbSpline
210
0.0
220
0.0
230
1.0
 70
           0
 71
           4
 72
          12
 73
           8
 74
          11
 42
0.00000000001
 43
0.00000000001
 44
0.00000000001
 40
0.0
 40
0.0
 40
0.0
 40
0.0
 40
0.1634359885593411
 40
0.3257060570302395
 40
0.4075445527653422
 40
0.5693532055815045
 40
0.7318120194874597
 40
0.7318120194874597
 40
0.7318120194874597
 40
0.7318120194874597
 10
345.58069285319129
 20
305.14649177872548
 30
0.0
 10
345.53528199243851
 20
305.21398956512871
 30
0.0
 10
345.47676616974542
 20
305.27155457695829
 30
0.0
 10
345.34061626412222
 20
305.35984261873261
 30
0.0
 10
345.26439809403632
 20
305.3896474829823
 30
0.0
 10
345.1049123700991
 20
305.41696677994253
 30
0.0
 10
345.02330341368929
 20
305.41419710122761
 30
0.0
 10
344.94477638641411
 20
305.39515477801763
 30
0.0
 11
345.58069285319129
 21
305.14649177872548
 31
0.0
 11
345.52102373714501
 21
305.22401477848086
 31
0.0
 11
345.46389302434937
 21
305.27503244501554
 31
0.0
 11
345.39547369568902
 21
305.32300920625471
 31
0.0
 11
345.32952796194786
 21
305.3618192230669
 31
0.0
 11
345.30226139732372
 21
305.37424969780699
 31
0.0
 11
345.27378005913022
 21
305.38360641457211
 31
0.0
 11
345.19915639434839
 21
305.39974758199247
 31
0.0
 11
345.11655619404712
 21
305.4108017658865
 31
0.0
 11
345.04047649224594
 21
305.4119127499016
 31
0.0
 11
344.94477638641411
 21
305.39515477801763
 31
0.0
  0
SPLINE
  5
2A8
100
AcDbEntity
  8
1
  6
CONTINUOUS
 62
           2
100
AcDbSpline
210
0.0
220
0.0
230
1.0
 70
           0
 71
           4
 72
          14
 73
          10
 74
          15
 42
0.00000000001
 43
0.00000000001
 44
0.00000000001
 40
0.0
 40
0.0
 40
0.0
 40
0.0
 40
0.1312785265325956
 40
0.261793812589512
 40
0.3277590816530277
 40
0.4586233450718571
 40
0.5247816921264464
 40
0.6519963201237963
 40
0.783985148027851
 40
0.783985148027851
 40
0.783985148027851
 40
0.783985148027851
 10
349.97384854603729
 20
305.8158459345027
 30
0.0
 10
350.0355648214952
 20
305.83762265331347
 30
0.0
 10
350.09540366658422
 20
305.86506876905662
 30
0.0
 10
350.20104353765743
 20
305.94171377890171
 30
0.0
 10
350.24581090188332
 20
305.99016271927081
 30
0.0
 10
350.31412718313209
 20
306.10177965865051
 30
0.0
 10
350.33700764110841
 20
306.16385551166752
 30
0.0
 10
350.3467684535492
 20
306.29069512739147
 30
0.0
 10
350.34427866296232
 20
306.35694740715229
 30
0.0
 10
350.32914519462111
 20
306.42087021570762
 30
0.0
 11
349.97384854603729
 21
305.8158459345027
 31
0.0
 11
350.04737579008179
 21
305.84456405565868
 31
0.0
 11
350.10174889442953
 21
305.87364139159462
 31
0.0
 11
350.15750071829234
 21
305.91114689561272
 31
0.0
 11
350.20576198591465
 21
305.94936648132557
 31
0.0
 11
350.22322962093557
 21
305.96643863993444
 31
0.0
 11
350.23965484037791
 21
305.98666809568067
 31
0.0
 11
350.27922608889685
 21
306.04640521112174
 31
0.0
 11
350.31449008318305
 21
306.10899229718268
 31
0.0
 11
350.32505600572051
 21
306.13308133073167
 31
0.0
 11
350.33178085809539
 21
306.15665664821324
 31
0.0
 11
350.34016710729759
 21
306.21547132326094
 31
0.0
 11
350.34415243430931
 21
306.28045243092396
 31
0.0
 11
350.34284663509703
 21
306.34272478063417
 31
0.0
 11
350.32914519462111
 21
306.42087021570762
 31
0.0
  0
SPLINE
  5
2A7
100
AcDbEntity
  8
1
  6
CONTINUOUS
 62
           2
100
AcDbSpline
210
0.0
220
0.0
230
1.0
 70
           0
 71
           4
 72
          12
 73
           8
 74
          11
 42
0.00000000001
 43
0.00000000001
 44
0.00000000001
 40
0.0
 40
0.0
 40
0.0
 40
0.0
 40
0.1742059886913331
 40
0.3471532484247696
 40
0.434387740230455
 40
0.6068433603549619
 40
0.7800107156402902
 40
0.7800107156402902
 40
0.7800107156402902
 40
0.7800107156402902
 10
352.84967293938348
 20
306.97549289105052
 30
0.0
 10
352.80089863136851
 20
307.04718157553469
 30
0.0
 10
352.7381225404481
 20
307.1081335057026
 30
0.0
 10
352.59227443604851
 20
307.20108018446172
 30
0.0
 10
352.51073965532242
 20
307.23209527905362
 30
0.0
 10
352.3404594704482
 20
307.25940094791059
 30
0.0
 10
352.2535088121333
 20
307.25540372160071
 30
0.0
 10
352.17008548525632
 20
307.2340018241095
 30
0.0
 11
352.84967293938348
 21
306.97549289105052
 31
0.0
 11
352.78561384637328
 21
307.05775659009208
 31
0.0
 11
352.72435160571581
 21
307.11171097650958
 31
0.0
 11
352.65104602494944
 21
307.16228045323305
 31
0.0
 11
352.58042915856942
 21
307.20306326443097
 31
0.0
 11
352.5512486006034
 21
307.21605363882327
 31
0.0
 11
352.52079533514757
 21
307.22573372099191
 31
0.0
 11
352.44109366889734
 21
307.24211155778067
 31
0.0
 11
352.35294221257396
 21
307.25293260282695
 31
0.0
 11
352.27184689274827
 21
307.2531706178911
 31
0.0
 11
352.17008548525632
 21
307.2340018241095
 31
0.0
  0
SPLINE
  5
2A6
100
AcDbEntity
  8
1
  6
CONTINUOUS
 62
           2
100
AcDbSpline
210
0.0
220
0.0
230
1.0
 70
           0
 71
           4
 72
           8
 73
           4
 74
           3
 42
0.00000000001
 43
0.00000000001
 44
0.00000000001
 40
0.0
 40
0.0
 40
0.0
 40
0.0
 40
0.3712543892952455
 40
0.3712543892952455
 40
0.3712543892952455
 40
0.3712543892952455
 10
306.8431533091441
 20
294.26959941035761
 30
0.0
 10
306.76666782089728
 20
294.17299235598961
 30
0.0
 10
306.70893557577352
 20
294.06271731153561
 30
0.0
 10
306.67295880291522
 20
293.94450887040028
 30
0.0
 11
306.8431533091441
 21
294.26959941035761
 31
0.0
 11
306.742865287759
 21
294.11515466041664
 31
0.0
 11
306.67295880291522
 21
293.94450887040028
 31
0.0
  0
CIRCLE
  5
2A5
100
AcDbEntity
  8
1
  6
CONTINUOUS
 62
           7
100
AcDbCircle
 10
351.999999999998
 20
255.5
 40
11.299999999999
  0
CIRCLE
  5
2A4
100
AcDbEntity
  8
1
  6
CONTINUOUS
 62
           7
100
AcDbCircle
 10
351.999999999998
 20
255.5
 40
8.0
  0
CIRCLE
  5
2A3
100
AcDbEntity
  8
1
  6
CONTINUOUS
 62
           7
100
AcDbCircle
 10
473.0
 20
252.7
 40
5.7225
  0
CIRCLE
  5
2A2
100
AcDbEntity
  8
1
  6
CONTINUOUS
 62
           7
100
AcDbCircle
 10
473.0
 20
252.7
 40
6.578500000001
  0
CIRCLE
  5
2A1
100
AcDbEntity
  8
1
  6
CONTINUOUS
 62
           7
100
AcDbCircle
 10
492.999999999999
 20
252.7
 40
5.7225
  0
CIRCLE
  5
2A0
100
AcDbEntity
  8
1
  6
CONTINUOUS
 62
           7
100
AcDbCircle
 10
492.999999999999
 20
252.7
 40
6.5785
  0
CIRCLE
  5
29F
100
AcDbEntity
  8
1
  6
CONTINUOUS
 62
           7
100
AcDbCircle
 10
483.0
 20
279.000000000001
 40
15.0
  0
CIRCLE
  5
29E
100
AcDbEntity
  8
1
  6
CONTINUOUS
 62
           7
100
AcDbCircle
 10
483.0
 20
279.000000000001
 40
15.5
  0
CIRCLE
  5
29D
100
AcDbEntity
  8
1
  6
CONTINUOUS
 62
           7
100
AcDbCircle
 10
483.0
 20
279.000000000001
 40
17.5
  0
ARC
  5
29C
100
AcDbEntity
  8
1
  6
CONTINUOUS
 62
           7
100
AcDbCircle
 10
281.841822969902
 20
292.992062568641
 40
8.12420243388
100
AcDbArc
 50
-21.730667890031
 51
21.730667890032
  0
ARC
  5
29B
100
AcDbEntity
  8
1
  6
CONTINUOUS
 62
           7
100
AcDbCircle
 10
288.99022783766
 20
292.992062568641
 40
8.124202433879
100
AcDbArc
 50
158.269332109965
 51
-158.269332109966
  0
ARC
  5
29A
100
AcDbEntity
  8
1
  6
CONTINUOUS
 62
           7
100
AcDbCircle
 10
309.733538863255
 20
279.0
 40
28.867513459473
100
AcDbArc
 50
168.521659045463
 51
-168.521659045462
  0
ARC
  5
299
100
AcDbEntity
  8
1
  6
CONTINUOUS
 62
           7
100
AcDbCircle
 10
261.098511944306
 20
279.0
 40
28.867513459476
100
AcDbArc
 50
-11.478340954536
 51
11.478340954536
  0
ARC
  5
298
100
AcDbEntity
  8
1
  6
CONTINUOUS
 62
           7
100
AcDbCircle
 10
281.841822969903
 20
265.007937431359
 40
8.124202433879
100
AcDbArc
 50
-21.730667890034
 51
21.730667890032
  0
ARC
  5
297
100
AcDbEntity
  8
1
  6
CONTINUOUS
 62
           7
100
AcDbCircle
 10
288.99022783766
 20
265.007937431359
 40
8.124202433879
100
AcDbArc
 50
158.269332109967
 51
-158.269332109965
  0
ARC
  5
296
100
AcDbEntity
  8
1
  6
CONTINUOUS
 62
           7
100
AcDbCircle
 10
327.978300653358
 20
283.330127018922
 40
2.555822748424
100
AcDbArc
 50
-34.384247468028
 51
34.384247468035
  0
ARC
  5
295
100
AcDbEntity
  8
1
  6
CONTINUOUS
 62
           7
100
AcDbCircle
 10
320.980705389153
 20
279.0
 40
9.553418012628
100
AcDbArc
 50
-17.587953773969
 51
17.587953773967
  0
ARC
  5
294
100
AcDbEntity
  8
1
  6
CONTINUOUS
 62
           7
100
AcDbCircle
 10
327.978300653356
 20
274.669872981078
 40
2.555822748426
100
AcDbArc
 50
-34.38424746803
 51
34.384247467993
  0
ARC
  5
293
100
AcDbEntity
  8
1
  6
CONTINUOUS
 62
           2
100
AcDbCircle
 10
348.103356787908
 20
231.839020088421
 40
8.708930392756
100
AcDbArc
 50
-90.679997024565
 51
-66.500278281132
  0
ARC
  5
292
100
AcDbEntity
  8
1
  6
CONTINUOUS
 62
           2
100
AcDbCircle
 10
347.275433257723
 20
218.319987423065
 40
12.83118978776
100
AcDbArc
 50
70.417442873849
 51
86.762832431846
  0
ARC
  5
291
100
AcDbEntity
  8
1
  6
CONTINUOUS
 62
           2
100
AcDbCircle
 10
355.896643212086
 20
231.839020088421
 40
8.708930392756
100
AcDbArc
 50
-113.499721718869
 51
-89.320002975436
  0
ARC
  5
290
100
AcDbEntity
  8
1
  6
CONTINUOUS
 62
           2
100
AcDbCircle
 10
356.724566742269
 20
218.319987423065
 40
12.83118978776
100
AcDbArc
 50
93.23716756815
 51
109.582557126145
  0
ARC
  5
28F
100
AcDbEntity
  8
1
  6
CONTINUOUS
 62
           2
100
AcDbCircle
 10
392.487297726438
 20
248.832653457064
 40
15.523800907521
100
AcDbArc
 50
165.574337339752
 51
-179.31413263144
  0
ARC
  5
28E
100
AcDbEntity
  8
1
  6
CONTINUOUS
 62
           2
100
AcDbCircle
 10
387.578869101229
 20
241.782711520441
 40
12.64035645767
100
AcDbArc
 50
147.109728716798
 51
160.80568254256
  0
ARC
  5
28D
100
AcDbEntity
  8
1
  6
CONTINUOUS
 62
           2
100
AcDbCircle
 10
368.054606035069
 20
247.014222041832
 40
12.64035645767
100
AcDbArc
 50
-10.805682542565
 51
2.890271283199
  0
ARC
  5
28C
100
AcDbEntity
  8
1
  6
CONTINUOUS
 62
           2
100
AcDbCircle
 10
367.328753121287
 20
255.573865166757
 40
15.523800907521
100
AcDbArc
 50
-30.685867368561
 51
-15.574337339754
  0
ARC
  5
28B
100
AcDbEntity
  8
1
  6
CONTINUOUS
 62
           2
100
AcDbCircle
 10
367.248203881973
 20
255.273251313022
 40
15.523800907521
100
AcDbArc
 50
-14.42566265042
 51
0.685867378385
  0
ARC
  5
28A
100
AcDbEntity
  8
1
  6
CONTINUOUS
 62
           2
100
AcDbCircle
 10
372.156632505973
 20
262.323193250487
 40
12.640356457671
100
AcDbArc
 50
-32.890271273376
 51
-19.194317447611
  0
ARC
  5
289
100
AcDbEntity
  8
1
  6
CONTINUOUS
 62
           2
100
AcDbCircle
 10
391.680895573029
 20
257.091682732445
 40
12.64035645767
100
AcDbArc
 50
169.194317467263
 51
-177.109728706971
  0
ARC
  5
288
100
AcDbEntity
  8
1
  6
CONTINUOUS
 62
           2
100
AcDbCircle
 10
392.406748488281
 20
248.532039607645
 40
15.523800907521
100
AcDbArc
 50
149.314132641271
 51
164.425662670077
  0
ARC
  5
287
100
AcDbEntity
  8
1
  6
CONTINUOUS
 62
           7
100
AcDbCircle
 10
354.825471448157
 20
304.687275846809
 40
11.951150572225
100
AcDbArc
 50
12.500000000003
 51
26.328743544303
  0
ARC
  5
286
100
AcDbEntity
  8
1
  6
CONTINUOUS
 62
           7
100
AcDbCircle
 10
362.140287375723
 20
312.096561147663
 40
3.206062139251
100
AcDbArc
 50
-14.380493111568
 51
39.380493111557
  0
ARC
  5
285
100
AcDbEntity
  8
1
  6
CONTINUOUS
 62
           7
100
AcDbCircle
 10
362.140404802473
 20
312.096587180546
 40
3.205954857733
100
AcDbArc
 50
12.336856832522
 51
12.663143167483
  0
ARC
  5
284
100
AcDbEntity
  8
1
  6
CONTINUOUS
 62
           7
100
AcDbCircle
 10
364.586245358637
 20
301.06355767453
 40
3.206062139251
100
AcDbArc
 50
-14.380493111547
 51
39.380493111561
  0
ARC
  5
283
100
AcDbEntity
  8
1
  6
CONTINUOUS
 62
           7
100
AcDbCircle
 10
354.825471448157
 20
304.687275846809
 40
11.951150572225
100
AcDbArc
 50
-1.328743544302
 51
26.328743544303
  0
ARC
  5
282
100
AcDbEntity
  8
1
  6
CONTINUOUS
 62
           7
100
AcDbCircle
 10
262.074619113469
 20
267.235980206254
 40
41.868452286822
100
AcDbArc
 50
40.110890103464
 51
41.7313815291
  0
ARC
  5
281
100
AcDbEntity
  8
1
  6
CONTINUOUS
 62
           7
100
AcDbCircle
 10
264.335006925574
 20
269.139876332812
 40
38.913088776392
100
AcDbArc
 50
38.409647202353
 51
40.111184628954
  0
ARC
  5
280
100
AcDbEntity
  8
1
  6
CONTINUOUS
 62
           7
100
AcDbCircle
 10
266.462430748424
 20
270.826419560777
 40
36.198248053404
100
AcDbArc
 50
36.624327733114
 51
38.409914391734
  0
ARC
  5
27F
100
AcDbEntity
  8
1
  6
CONTINUOUS
 62
           7
100
AcDbCircle
 10
268.45689058164
 20
272.308782792839
 40
33.713238846453
100
AcDbArc
 50
34.752267004834
 51
36.62455646919
  0
ARC
  5
27E
100
AcDbEntity
  8
1
  6
CONTINUOUS
 62
           7
100
AcDbCircle
 10
270.31838642642
 20
273.600138932847
 40
31.447677668666
100
AcDbArc
 50
32.791275809144
 51
34.752444512173
  0
ARC
  5
27D
100
AcDbEntity
  8
1
  6
CONTINUOUS
 62
           7
100
AcDbCircle
 10
272.046918282428
 20
274.713660883438
 40
29.391527501935
100
AcDbArc
 50
30.739785040321
 51
32.791387807403
  0
ARC
  5
27C
100
AcDbEntity
  8
1
  6
CONTINUOUS
 62
           7
100
AcDbCircle
 10
273.642486149622
 20
275.662521547495
 40
27.535140317542
100
AcDbArc
 50
28.597004921506
 51
30.739816076141
  0
ARC
  5
27B
100
AcDbEntity
  8
1
  6
CONTINUOUS
 62
           7
100
AcDbCircle
 10
275.105090027549
 20
276.459893827698
 40
25.869303393945
100
AcDbArc
 50
26.363094187558
 51
28.596938921573
  0
ARC
  5
27A
100
AcDbEntity
  8
1
  6
CONTINUOUS
 62
           7
100
AcDbCircle
 10
276.434729916747
 20
277.118950627271
 40
24.385289211445
100
AcDbArc
 50
24.039332027188
 51
26.362915263768
  0
ARC
  5
279
100
AcDbEntity
  8
1
  6
CONTINUOUS
 62
           7
100
AcDbCircle
 10
277.63140581697
 20
277.652864849019
 40
23.074908507124
100
AcDbArc
 50
21.628282814915
 51
24.039025540913
  0
ARC
  5
278
100
AcDbEntity
  8
1
  6
CONTINUOUS
 62
           7
100
AcDbCircle
 10
278.695117728433
 20
278.07480939595
 40
21.930565813439
100
AcDbArc
 50
19.133940991092
 51
21.62783667006
  0
ARC
  5
277
100
AcDbEntity
  8
1
  6
CONTINUOUS
 62
           7
100
AcDbCircle
 10
279.625865651035
 20
278.397957170936
 40
20.945316540133
100
AcDbArc
 50
16.561841350055
 51
19.133347074896
  0
ARC
  5
276
100
AcDbEntity
  8
1
  6
CONTINUOUS
 62
           7
100
AcDbCircle
 10
280.423649584559
 20
278.635481076837
 40
20.112924361314
100
AcDbArc
 50
13.919119055284
 51
16.561096984205
  0
ARC
  5
275
100
AcDbEntity
  8
1
  6
CONTINUOUS
 62
           7
100
AcDbCircle
 10
281.088469529003
 20
278.800554016601
 40
19.427917398194
100
AcDbArc
 50
11.214504516857
 51
13.918228267966
  0
ARC
  5
274
100
AcDbEntity
  8
1
  6
CONTINUOUS
 62
           7
100
AcDbCircle
 10
281.620325484722
 20
278.906348893247
 40
18.885641457371
100
AcDbArc
 50
8.458241308476
 51
11.213478915807
  0
ARC
  5
273
100
AcDbEntity
  8
1
  6
CONTINUOUS
 62
           7
100
AcDbCircle
 10
282.019217451576
 20
278.966038609648
 40
18.482308437338
100
AcDbArc
 50
5.661920721645
 51
8.457100342282
  0
ARC
  5
272
100
AcDbEntity
  8
1
  6
CONTINUOUS
 62
           7
100
AcDbCircle
 10
282.285145429362
 20
278.992796068711
 40
18.21503798265
100
AcDbArc
 50
2.838234029734
 51
5.660691172688
  0
ARC
  5
271
100
AcDbEntity
  8
1
  6
CONTINUOUS
 62
           7
100
AcDbCircle
 10
282.418109418097
 20
278.999794173388
 40
18.081890583072
100
AcDbArc
 50
0.000652199289
 51
2.836948687684
  0
ARC
  5
270
100
AcDbEntity
  8
1
  6
CONTINUOUS
 62
           7
100
AcDbCircle
 10
282.418109418264
 20
279.000205826609
 40
18.081890582905
100
AcDbArc
 50
-2.836948687699
 51
-0.000652199278
  0
ARC
  5
26F
100
AcDbEntity
  8
1
  6
CONTINUOUS
 62
           7
100
AcDbCircle
 10
282.285145429228
 20
279.007203931298
 40
18.215037982785
100
AcDbArc
 50
-5.660691172674
 51
-2.838234029739
  0
ARC
  5
26E
100
AcDbEntity
  8
1
  6
CONTINUOUS
 62
           7
100
AcDbCircle
 10
282.01921745127
 20
279.03396139039
 40
18.482308437647
100
AcDbArc
 50
-8.457100342257
 51
-5.661920721669
  0
ARC
  5
26D
100
AcDbEntity
  8
1
  6
CONTINUOUS
 62
           7
100
AcDbCircle
 10
281.620325484574
 20
279.093651106779
 40
18.88564145752
100
AcDbArc
 50
-11.213478915798
 51
-8.458241308486
  0
ARC
  5
26C
100
AcDbEntity
  8
1
  6
CONTINUOUS
 62
           7
100
AcDbCircle
 10
281.088469528829
 20
279.199445983438
 40
19.427917398373
100
AcDbArc
 50
-13.918228267951
 51
-11.214504516871
  0
ARC
  5
26B
100
AcDbEntity
  8
1
  6
CONTINUOUS
 62
           7
100
AcDbCircle
 10
280.423649584366
 20
279.364518923217
 40
20.112924361513
100
AcDbArc
 50
-16.561096984194
 51
-13.919119055299
  0
ARC
  5
26A
100
AcDbEntity
  8
1
  6
CONTINUOUS
 62
           7
100
AcDbCircle
 10
279.625865651108
 20
279.602042829041
 40
20.945316540056
100
AcDbArc
 50
-19.133347074904
 51
-16.561841350051
  0
ARC
  5
269
100
AcDbEntity
  8
1
  6
CONTINUOUS
 62
           7
100
AcDbCircle
 10
278.695117728433
 20
279.925190604051
 40
21.930565813439
100
AcDbArc
 50
-21.627836670062
 51
-19.133940991094
  0
ARC
  5
268
100
AcDbEntity
  8
1
  6
CONTINUOUS
 62
           7
100
AcDbCircle
 10
277.631405817146
 20
280.34713515091
 40
23.074908506935
100
AcDbArc
 50
-24.039025540931
 51
-21.628282814912
  0
ARC
  5
267
100
AcDbEntity
  8
1
  6
CONTINUOUS
 62
           7
100
AcDbCircle
 10
276.434729916752
 20
280.881049372722
 40
24.385289211438
100
AcDbArc
 50
-26.362915263759
 51
-24.039332027178
  0
ARC
  5
266
100
AcDbEntity
  8
1
  6
CONTINUOUS
 62
           7
100
AcDbCircle
 10
275.10509002792
 20
281.540106172113
 40
25.869303393529
100
AcDbArc
 50
-28.596938921599
 51
-26.363094187548
  0
ARC
  5
265
100
AcDbEntity
  8
1
  6
CONTINUOUS
 62
           7
100
AcDbCircle
 10
273.642486149927
 20
282.337478452331
 40
27.53514031719
100
AcDbArc
 50
-30.739816076152
 51
-28.597004921492
  0
ARC
  5
264
100
AcDbEntity
  8
1
  6
CONTINUOUS
 62
           7
100
AcDbCircle
 10
272.046918283124
 20
283.286339116132
 40
29.391527501116
100
AcDbArc
 50
-32.791387807432
 51
-30.739785040292
  0
ARC
  5
263
100
AcDbEntity
  8
1
  6
CONTINUOUS
 62
           7
100
AcDbCircle
 10
270.318386426738
 20
284.399861066939
 40
31.447677668283
100
AcDbArc
 50
-34.75244451218
 51
-32.791275809128
  0
ARC
  5
262
100
AcDbEntity
  8
1
  6
CONTINUOUS
 62
           7
100
AcDbCircle
 10
268.456890582034
 20
285.691217206873
 40
33.713238845965
100
AcDbArc
 50
-36.624556469197
 51
-34.752267004813
  0
ARC
  5
261
100
AcDbEntity
  8
1
  6
CONTINUOUS
 62
           7
100
AcDbCircle
 10
266.462430747891
 20
287.173580439638
 40
36.198248054079
100
AcDbArc
 50
-38.409914391723
 51
-36.624327733137
  0
ARC
  5
260
100
AcDbEntity
  8
1
  6
CONTINUOUS
 62
           7
100
AcDbCircle
 10
264.33500692553
 20
288.860123667223
 40
38.913088776447
100
AcDbArc
 50
-40.111184628951
 51
-38.409647202353
  0
ARC
  5
25F
100
AcDbEntity
  8
1
  6
CONTINUOUS
 62
           7
100
AcDbCircle
 10
262.074619114094
 20
290.7640197932
 40
41.868452285992
100
AcDbArc
 50
-41.538645126781
 51
-40.110890103443
  0
ARC
  5
25E
100
AcDbEntity
  8
1
  6
CONTINUOUS
 62
           7
100
AcDbCircle
 10
352.499999999998
 20
254.5
 40
12.5
100
AcDbArc
 50
180.0
 51
-90.0
  0
ARC
  5
25D
100
AcDbEntity
  8
1
  6
CONTINUOUS
 62
           7
100
AcDbCircle
 10
304.949560280552
 20
259.806062139249
 40
3.206062139249
100
AcDbArc
 50
-116.880493111579
 51
-63.119506888425
  0
ARC
  5
25C
100
AcDbEntity
  8
1
  6
CONTINUOUS
 62
           7
100
AcDbCircle
 10
310.599999999998
 20
268.551150572224
 40
11.951150572224
100
AcDbArc
 50
-103.828743544312
 51
-76.171256455695
  0
ARC
  5
25B
100
AcDbEntity
  8
1
  6
CONTINUOUS
 62
           7
100
AcDbCircle
 10
316.250439719443
 20
259.806062139253
 40
3.206062139252
100
AcDbArc
 50
-116.880493111545
 51
-63.119506888463
  0
ARC
  5
25A
100
AcDbEntity
  8
1
  6
CONTINUOUS
 62
           7
100
AcDbCircle
 10
368.088402055638
 20
277.320588192055
 40
25.965964878101
100
AcDbArc
 50
3.708332120371
 51
18.23770915515
  0
ARC
  5
259
100
AcDbEntity
  8
1
  6
CONTINUOUS
 62
           7
100
AcDbCircle
 10
388.996474486078
 20
292.941478610497
 40
5.003525513918
100
AcDbArc
 50
-41.394361020436
 51
41.394361020446
  0
ARC
  5
258
100
AcDbEntity
  8
1
  6
CONTINUOUS
 62
           7
100
AcDbCircle
 10
368.088402055638
 20
280.679411807945
 40
25.965964878101
100
AcDbArc
 50
-18.237709155149
 51
-3.70833212037
  0
ARC
  5
257
100
AcDbEntity
  8
1
  6
CONTINUOUS
 62
           7
100
AcDbCircle
 10
388.996474486078
 20
265.058521389503
 40
5.003525513919
100
AcDbArc
 50
-41.394361020443
 51
41.394361020448
  0
ARC
  5
256
100
AcDbEntity
  8
1
  6
CONTINUOUS
 62
           7
100
AcDbCircle
 10
272.096973524278
 20
284.665063509461
 40
3.230948120497
100
AcDbArc
 50
155.595764443564
 51
-155.595764443566
  0
ARC
  5
255
100
AcDbEntity
  8
1
  6
CONTINUOUS
 62
           7
100
AcDbCircle
 10
268.635077283286
 20
284.665063509461
 40
3.230948120496
100
AcDbArc
 50
-24.404235556441
 51
24.404235556444
  0
ARC
  5
254
100
AcDbEntity
  8
1
  6
CONTINUOUS
 62
           7
100
AcDbCircle
 10
280.701705922175
 20
279.0
 40
11.835680518393
100
AcDbArc
 50
167.319616508188
 51
-167.319616508187
  0
ARC
  5
253
100
AcDbEntity
  8
1
  6
CONTINUOUS
 62
           7
100
AcDbCircle
 10
260.030344885391
 20
279.0
 40
11.835680518391
100
AcDbArc
 50
-12.680383491816
 51
12.680383491815
  0
ARC
  5
252
100
AcDbEntity
  8
1
  6
CONTINUOUS
 62
           7
100
AcDbCircle
 10
272.096973524278
 20
273.334936490539
 40
3.230948120497
100
AcDbArc
 50
155.59576444356
 51
-155.595764443567
  0
ARC
  5
251
100
AcDbEntity
  8
1
  6
CONTINUOUS
 62
           7
100
AcDbCircle
 10
268.635077283286
 20
273.334936490539
 40
3.230948120496
100
AcDbArc
 50
-24.40423555644
 51
24.404235556448
  0
ARC
  5
250
100
AcDbEntity
  8
1
  6
CONTINUOUS
 62
           2
100
AcDbCircle
 10
496.724566742275
 20
218.319987423064
 40
12.831189787761
100
AcDbArc
 50
93.237167568156
 51
109.58255712615
  0
ARC
  5
24F
100
AcDbEntity
  8
1
  6
CONTINUOUS
 62
           2
100
AcDbCircle
 10
495.89664321209
 20
231.839020088421
 40
8.708930392756
100
AcDbArc
 50
-113.499721718869
 51
-89.320002975437
  0
ARC
  5
24E
100
AcDbEntity
  8
1
  6
CONTINUOUS
 62
           2
100
AcDbCircle
 10
487.275433257728
 20
218.319987423064
 40
12.83118978776
100
AcDbArc
 50
70.417442873855
 51
86.76283243185
  0
ARC
  5
24D
100
AcDbEntity
  8
1
  6
CONTINUOUS
 62
           2
100
AcDbCircle
 10
488.103356787912
 20
231.839020088421
 40
8.708930392756
100
AcDbArc
 50
-90.679997024566
 51
-66.500278281132
  0
ARC
  5
24C
100
AcDbEntity
  8
1
  6
CONTINUOUS
 62
           2
100
AcDbCircle
 10
470.10335678791
 20
231.839020088421
 40
8.708930392756
100
AcDbArc
 50
-90.679997024565
 51
-66.500278281133
  0
ARC
  5
24B
100
AcDbEntity
  8
1
  6
CONTINUOUS
 62
           2
100
AcDbCircle
 10
469.275433257726
 20
218.319987423064
 40
12.83118978776
100
AcDbArc
 50
70.417442873855
 51
86.76283243185
  0
ARC
  5
24A
100
AcDbEntity
  8
1
  6
CONTINUOUS
 62
           2
100
AcDbCircle
 10
477.896643212088
 20
231.839020088421
 40
8.708930392756
100
AcDbArc
 50
-113.49972171887
 51
-89.320002975437
  0
ARC
  5
249
100
AcDbEntity
  8
1
  6
CONTINUOUS
 62
           2
100
AcDbCircle
 10
478.724566742273
 20
218.319987423064
 40
12.831189787761
100
AcDbArc
 50
93.237167568154
 51
109.582557126149
  0
ARC
  5
248
100
AcDbEntity
  8
1
  6
CONTINUOUS
 62
           7
100
AcDbCircle
 10
483.910409706021
 20
307.270775383454
 40
5.090636521582
100
AcDbArc
 50
-19.593571954723
 51
1.161641479042
  0
ARC
  5
247
100
AcDbEntity
  8
1
  6
CONTINUOUS
 62
           7
100
AcDbCircle
 10
482.974329263525
 20
307.603980304901
 40
6.084252199045
100
AcDbArc
 50
-99.614853896112
 51
-19.593571954724
  0
ARC
  5
246
100
AcDbEntity
  8
1
  6
CONTINUOUS
 62
           7
100
AcDbCircle
 10
482.965060711315
 20
307.549267598807
 40
6.028759980959
100
AcDbArc
 50
-129.340356988111
 51
-99.614853896112
  0
ARC
  5
245
100
AcDbEntity
  8
1
  6
CONTINUOUS
 62
           7
100
AcDbCircle
 10
482.86425240235
 20
307.426280756228
 40
5.869737722756
100
AcDbArc
 50
-172.498814996131
 51
-129.340356988112
  0
ARC
  5
244
100
AcDbEntity
  8
1
  6
CONTINUOUS
 62
           7
100
AcDbCircle
 10
482.644089344086
 20
307.397291107335
 40
5.647674281445
100
AcDbArc
 50
145.886510092487
 51
-172.498814996132
  0
ARC
  5
243
100
AcDbEntity
  8
1
  6
CONTINUOUS
 62
           7
100
AcDbCircle
 10
482.997163567444
 20
307.158120632315
 40
6.07412934745
100
AcDbArc
 50
85.035200486918
 51
145.886510092487
  0
ARC
  5
242
100
AcDbEntity
  8
1
  6
CONTINUOUS
 62
           7
100
AcDbCircle
 10
482.993118466869
 20
307.111555445118
 40
6.120869902617
100
AcDbArc
 50
46.999716123639
 51
85.035200486917
  0
ARC
  5
241
100
AcDbEntity
  8
1
  6
CONTINUOUS
 62
           7
100
AcDbCircle
 10
483.237586312294
 20
307.373712509048
 40
5.762413693834
100
AcDbArc
 50
0.002642393954
 51
46.999716123638
  0
ARC
  5
240
100
AcDbEntity
  8
1
  6
CONTINUOUS
 62
           7
100
AcDbCircle
 10
484.077318152174
 20
307.251854855568
 40
6.023919883822
100
AcDbArc
 50
-19.593571954792
 51
1.161641479144
  0
ARC
  5
23F
100
AcDbEntity
  8
1
  6
CONTINUOUS
 62
           7
100
AcDbCircle
 10
482.969622961831
 20
307.646147345968
 40
7.199698435547
100
AcDbArc
 50
-99.614853896044
 51
-19.593571954793
  0
ARC
  5
23E
100
AcDbEntity
  8
1
  6
CONTINUOUS
 62
           7
100
AcDbCircle
 10
482.958655175042
 20
307.581403977051
 40
7.134032644105
100
AcDbArc
 50
-129.340356988169
 51
-99.614853896043
  0
ARC
  5
23D
100
AcDbEntity
  8
1
  6
CONTINUOUS
 62
           7
100
AcDbCircle
 10
482.839365342797
 20
307.435869546703
 40
6.945856305279
100
AcDbArc
 50
-172.498814996073
 51
-129.340356988168
  0
ARC
  5
23C
100
AcDbEntity
  8
1
  6
CONTINUOUS
 62
           7
100
AcDbCircle
 10
482.578839057148
 20
307.401565128842
 40
6.683081233023
100
AcDbArc
 50
145.886510092415
 51
-172.498814996073
  0
ARC
  5
23B
100
AcDbEntity
  8
1
  6
CONTINUOUS
 62
           7
100
AcDbCircle
 10
482.996643554815
 20
307.118546733381
 40
7.18771972783
100
AcDbArc
 50
85.035200486983
 51
145.886510092413
  0
ARC
  5
23A
100
AcDbEntity
  8
1
  6
CONTINUOUS
 62
           7
100
AcDbCircle
 10
482.991856852472
 20
307.06344459523
 40
7.243029384746
100
AcDbArc
 50
46.999716123607
 51
85.035200486985
  0
ARC
  5
239
100
AcDbEntity
  8
1
  6
CONTINUOUS
 62
           7
100
AcDbCircle
 10
483.281143802878
 20
307.373663787532
 40
6.818856204373
100
AcDbArc
 50
0.002642393943
 51
46.999716123607
  0
ARC
  5
238
100
AcDbEntity
  8

  6
CONTINUOUS
 62
           7
100
AcDbCircle
 10
483.0
 20
294.4
 40
20.000000000001
100
AcDbArc
 50
70.823212733108
 51
109.176787266894
  0
ARC
  5
237
100
AcDbEntity
  8

  6
CONTINUOUS
 62
           7
100
AcDbCircle
 10
531.839458547211
 20
293.513748664693
 40
59.999999999999
100
AcDbArc
 50
162.707848050781
 51
173.422300392799
  0
ARC
  5
236
100
AcDbEntity
  8

  6
CONTINUOUS
 62
           7
100
AcDbCircle
 10
473.475370835716
 20
290.037221807966
 40
8.000000000001
100
AcDbArc
 50
115.756809085861
 51
178.838758091683
  0
ARC
  5
235
100
AcDbEntity
  8

  6
CONTINUOUS
 62
           7
100
AcDbCircle
 10
492.524629164282
 20
290.037221807966
 40
8.0
100
AcDbArc
 50
1.161241908317
 51
64.243190914136
  0
ARC
  5
234
100
AcDbEntity
  8

  6
CONTINUOUS
 62
           7
100
AcDbCircle
 10
434.160541452788
 20
293.513748664693
 40
59.999999999999
100
AcDbArc
 50
6.577699607201
 51
17.292151949218
  0
ARC
  5
233
100
AcDbEntity
  8
1
  6
CONTINUOUS
 62
           7
100
AcDbCircle
 10
483.0
 20
291.500000000001
 40
1.5
100
AcDbArc
 50
180.0
 51
0.0
  0
ARC
  5
232
100
AcDbEntity
  8
1
  6
CONTINUOUS
 62
           7
100
AcDbCircle
 10
483.0
 20
291.272018346237
 40
2.227981653762
100
AcDbArc
 50
47.681205534141
 51
132.318794465891
  0
ARC
  5
231
100
AcDbEntity
  8
1
  6
CONTINUOUS
 62
           7
100
AcDbCircle
 10
483.0
 20
279.000000000001
 40
14.0
100
AcDbArc
 50
96.150639827944
 51
83.849360172062
  0
ARC
  5
230
100
AcDbEntity
  8
1
  6
CONTINUOUS
 62
           7
100
AcDbCircle
 10
483.0
 20
279.000000000001
 40
17.25
100
AcDbArc
 50
21.946041275522
 51
38.05395872448
  0
ARC
  5
22F
100
AcDbEntity
  8
1
  6
CONTINUOUS
 62
           7
100
AcDbCircle
 10
483.0
 20
279.000000000001
 40
17.249999999999
100
AcDbArc
 50
-38.05395872448
 51
-21.946041275518
  0
ARC
  5
22E
100
AcDbEntity
  8
1
  6
CONTINUOUS
 62
           7
100
AcDbCircle
 10
483.0
 20
279.000000000001
 40
17.25
100
AcDbArc
 50
-98.053958724481
 51
-81.946041275524
  0
ARC
  5
22D
100
AcDbEntity
  8
1
  6
CONTINUOUS
 62
           7
100
AcDbCircle
 10
483.0
 20
279.000000000001
 40
17.250000000001
100
AcDbArc
 50
-158.053958724482
 51
-141.946041275523
  0
ARC
  5
22C
100
AcDbEntity
  8
1
  6
CONTINUOUS
 62
           7
100
AcDbCircle
 10
483.0
 20
279.000000000001
 40
17.250000000001
100
AcDbArc
 50
141.946041275523
 51
158.053958724479
  0
ARC
  5
22B
100
AcDbEntity
  8
1
  6
CONTINUOUS
 62
           7
100
AcDbCircle
 10
483.0
 20
279.000000000001
 40
17.25
100
AcDbArc
 50
81.946041275524
 51
98.053958724482
  0
LINE
  5
22A
100
AcDbEntity
  8
1
  6
PHANTOM
 62
           3
100
AcDbLine
 10
417.940498993646
 20
294.0
 11
418.940498993646
 21
293.0
  0
LINE
  5
229
100
AcDbEntity
  8
1
  6
PHANTOM
 62
           3
100
AcDbLine
 10
417.940498993646
 20
294.0
 11
417.940498993646
 21
264.0
  0
LINE
  5
228
100
AcDbEntity
  8
1
  6
PHANTOM
 62
           3
100
AcDbLine
 10
418.940498993646
 20
265.0
 11
417.940498993646
 21
264.0
  0
LINE
  5
227
100
AcDbEntity
  8
1
  6
PHANTOM
 62
           3
100
AcDbLine
 10
418.940498993646
 20
293.0
 11
418.940498993646
 21
265.0
  0
LINE
  5
226
100
AcDbEntity
  8
1
  6
PHANTOM
 62
           3
100
AcDbLine
 10
414.440498993646
 20
264.0
 11
417.940498993646
 21
264.0
  0
LINE
  5
225
100
AcDbEntity
  8
1
  6
PHANTOM
 62
           3
100
AcDbLine
 10
414.440498993646
 20
294.0
 11
417.940498993646
 21
294.0
  0
LINE
  5
224
100
AcDbEntity
  8
1
  6
CONTINUOUS
 62
           2
100
AcDbLine
 10
363.60606541775
 20
278.499999999999
 11
363.60606541775
 21
278.294117647058
  0
LINE
  5
223
100
AcDbEntity
  8
1
  6
CONTINUOUS
 62
           2
100
AcDbLine
 10
363.400183064809
 20
276.647058823528
 11
362.782536005985
 21
276.647058823528
  0
LINE
  5
222
100
AcDbEntity
  8
1
  6
CONTINUOUS
 62
           2
100
AcDbLine
 10
362.782536005985
 20
277.470588235293
 11
362.782536005985
 21
276.647058823528
  0
LINE
  5
221
100
AcDbEntity
  8
1
  6
CONTINUOUS
 62
           2
100
AcDbLine
 10
364.429594829515
 20
278.499999999999
 11
363.60606541775
 21
278.499999999999
  0
LINE
  5
220
100
AcDbEntity
  8
1
  6
CONTINUOUS
 62
           2
100
AcDbLine
 10
363.400183064809
 20
271.499999999999
 11
364.429594829515
 21
271.499999999999
  0
LINE
  5
21F
100
AcDbEntity
  8
1
  6
CONTINUOUS
 62
           2
100
AcDbLine
 10
363.400183064809
 20
276.647058823528
 11
363.400183064809
 21
271.499999999999
  0
LINE
  5
21E
100
AcDbEntity
  8
1
  6
CONTINUOUS
 62
           2
100
AcDbLine
 10
364.429594829515
 20
278.499999999999
 11
364.429594829515
 21
271.499999999999
  0
LINE
  5
21D
100
AcDbEntity
  8
1
  6
CONTINUOUS
 62
           2
100
AcDbLine
 10
350.660667770363
 20
276.551113926134
 11
350.935667770363
 21
276.551113926134
  0
LINE
  5
21C
100
AcDbEntity
  8
1
  6
CONTINUOUS
 62
           2
100
AcDbLine
 10
350.935667770363
 20
276.551113926134
 11
351.215921875013
 21
273.844999999999
  0
LINE
  5
21B
100
AcDbEntity
  8
1
  6
CONTINUOUS
 62
           2
100
AcDbLine
 10
350.380413665713
 20
273.844999999999
 11
350.660667770363
 21
276.551113926134
  0
LINE
  5
21A
100
AcDbEntity
  8
1
  6
CONTINUOUS
 62
           2
100
AcDbLine
 10
351.215921875013
 20
273.844999999999
 11
350.380413665713
 21
273.844999999999
  0
LINE
  5
219
100
AcDbEntity
  8
1
  6
CONTINUOUS
 62
           2
100
AcDbLine
 10
350.282028524996
 20
272.894999999999
 11
350.137557713103
 21
271.499999999999
  0
LINE
  5
218
100
AcDbEntity
  8
1
  6
CONTINUOUS
 62
           2
100
AcDbLine
 10
351.314307015729
 20
272.894999999999
 11
350.282028524996
 21
272.894999999999
  0
LINE
  5
217
100
AcDbEntity
  8
1
  6
CONTINUOUS
 62
           2
100
AcDbLine
 10
351.458777827624
 20
271.499999999999
 11
351.314307015729
 21
272.894999999999
  0
LINE
  5
216
100
AcDbEntity
  8
1
  6
CONTINUOUS
 62
           2
100
AcDbLine
 10
352.508431815081
 20
271.499999999999
 11
351.458777827624
 21
271.499999999999
  0
LINE
  5
215
100
AcDbEntity
  8
1
  6
CONTINUOUS
 62
           2
100
AcDbLine
 10
351.783488672959
 20
278.499999999999
 11
352.508431815081
 21
271.499999999999
  0
LINE
  5
214
100
AcDbEntity
  8
1
  6
CONTINUOUS
 62
           2
100
AcDbLine
 10
349.812846867765
 20
278.499999999999
 11
351.783488672959
 21
278.499999999999
  0
LINE
  5
213
100
AcDbEntity
  8
1
  6
CONTINUOUS
 62
           2
100
AcDbLine
 10
349.087903725646
 20
271.499999999999
 11
349.812846867765
 21
278.499999999999
  0
LINE
  5
212
100
AcDbEntity
  8
1
  6
CONTINUOUS
 62
           2
100
AcDbLine
 10
350.137557713103
 20
271.499999999999
 11
349.087903725646
 21
271.499999999999
  0
LINE
  5
211
100
AcDbEntity
  8
1
  6
CONTINUOUS
 62
           2
100
AcDbLine
 10
343.699999999997
 20
278.499999999999
 11
344.387943992702
 21
271.499999999999
  0
LINE
  5
210
100
AcDbEntity
  8
1
  6
CONTINUOUS
 62
           2
100
AcDbLine
 10
344.864837397981
 20
278.499999999999
 11
343.699999999997
 21
278.499999999999
  0
LINE
  5
20F
100
AcDbEntity
  8
1
  6
CONTINUOUS
 62
           2
100
AcDbLine
 10
344.997932920329
 20
276.283962596506
 11
344.864837397981
 21
278.499999999999
  0
LINE
  5
20E
100
AcDbEntity
  8
1
  6
CONTINUOUS
 62
           2
100
AcDbLine
 10
345.382374682618
 20
278.499999999999
 11
345.213080575819
 21
276.283962596506
  0
LINE
  5
20D
100
AcDbEntity
  8
1
  6
CONTINUOUS
 62
           2
100
AcDbLine
 10
345.643018460027
 20
271.499999999999
 11
346.015971122952
 21
274.467476541073
  0
LINE
  5
20C
100
AcDbEntity
  8
1
  6
CONTINUOUS
 62
           2
100
AcDbLine
 10
344.387943992702
 20
271.499999999999
 11
345.643018460027
 21
271.499999999999
  0
LINE
  5
20B
100
AcDbEntity
  8
1
  6
CONTINUOUS
 62
           2
100
AcDbLine
 10
347.859382868588
 20
271.499999999999
 11
348.547326861292
 21
278.499999999999
  0
LINE
  5
20A
100
AcDbEntity
  8
1
  6
CONTINUOUS
 62
           2
100
AcDbLine
 10
348.547326861292
 20
278.499999999999
 11
347.382489463307
 21
278.499999999999
  0
LINE
  5
209
100
AcDbEntity
  8
1
  6
CONTINUOUS
 62
           2
100
AcDbLine
 10
347.382489463307
 20
278.499999999999
 11
347.249341482439
 21
276.283089163336
  0
LINE
  5
208
100
AcDbEntity
  8
1
  6
CONTINUOUS
 62
           2
100
AcDbLine
 10
347.034313011367
 20
276.283089163336
 11
346.86495217867
 21
278.499999999999
  0
LINE
  5
207
100
AcDbEntity
  8
1
  6
CONTINUOUS
 62
           2
100
AcDbLine
 10
346.231355738337
 20
274.467476541073
 11
346.604308401262
 21
271.499999999999
  0
LINE
  5
206
100
AcDbEntity
  8
1
  6
CONTINUOUS
 62
           2
100
AcDbLine
 10
346.604308401262
 20
271.499999999999
 11
347.859382868588
 21
271.499999999999
  0
LINE
  5
205
100
AcDbEntity
  8
1
  6
CONTINUOUS
 62
           2
100
AcDbLine
 10
346.86495217867
 20
278.499999999999
 11
345.382374682618
 21
278.499999999999
  0
LINE
  5
204
100
AcDbEntity
  8
1
  6
CONTINUOUS
 62
           2
100
AcDbLine
 10
346.015971122952
 20
274.467476541073
 11
346.231355738337
 21
274.467476541073
  0
LINE
  5
203
100
AcDbEntity
  8
1
  6
CONTINUOUS
 62
           2
100
AcDbLine
 10
344.997932920329
 20
276.283962596506
 11
345.213080575819
 21
276.283962596506
  0
LINE
  5
202
100
AcDbEntity
  8
1
  6
CONTINUOUS
 62
           2
100
AcDbLine
 10
347.034313011367
 20
276.283089163336
 11
347.249341482439
 21
276.283089163336
  0
LINE
  5
201
100
AcDbEntity
  8
1
  6
CONTINUOUS
 62
           2
100
AcDbLine
 10
358.268630121935
 20
278.499999999999
 11
358.268630121935
 21
271.499999999999
  0
LINE
  5
200
100
AcDbEntity
  8
1
  6
CONTINUOUS
 62
           2
100
AcDbLine
 10
357.239218357228
 20
276.647058823528
 11
357.239218357228
 21
271.499999999999
  0
LINE
  5
1FF
100
AcDbEntity
  8
1
  6
CONTINUOUS
 62
           2
100
AcDbLine
 10
357.239218357228
 20
271.499999999999
 11
358.268630121935
 21
271.499999999999
  0
LINE
  5
1FE
100
AcDbEntity
  8
1
  6
CONTINUOUS
 62
           2
100
AcDbLine
 10
358.268630121935
 20
278.499999999999
 11
357.44510071017
 21
278.499999999999
  0
LINE
  5
1FD
100
AcDbEntity
  8
1
  6
CONTINUOUS
 62
           2
100
AcDbLine
 10
356.621571298405
 20
277.470588235293
 11
356.621571298405
 21
276.647058823528
  0
LINE
  5
1FC
100
AcDbEntity
  8
1
  6
CONTINUOUS
 62
           2
100
AcDbLine
 10
357.239218357228
 20
276.647058823528
 11
356.621571298405
 21
276.647058823528
  0
LINE
  5
1FB
100
AcDbEntity
  8
1
  6
CONTINUOUS
 62
           2
100
AcDbLine
 10
357.44510071017
 20
278.499999999999
 11
357.44510071017
 21
278.294117647058
  0
LINE
  5
1FA
100
AcDbEntity
  8
1
  6
CONTINUOUS
 62
           2
100
AcDbLine
 10
353.434615384613
 20
274.474999999999
 11
353.434615384613
 21
275.524999999999
  0
LINE
  5
1F9
100
AcDbEntity
  8
1
  6
CONTINUOUS
 62
           2
100
AcDbLine
 10
355.534615384613
 20
274.474999999999
 11
353.434615384613
 21
274.474999999999
  0
LINE
  5
1F8
100
AcDbEntity
  8
1
  6
CONTINUOUS
 62
           2
100
AcDbLine
 10
355.534615384613
 20
275.524999999999
 11
355.534615384613
 21
274.474999999999
  0
LINE
  5
1F7
100
AcDbEntity
  8
1
  6
CONTINUOUS
 62
           2
100
AcDbLine
 10
353.434615384613
 20
275.524999999999
 11
355.534615384613
 21
275.524999999999
  0
LINE
  5
1F6
100
AcDbEntity
  8
1
  6
CONTINUOUS
 62
           2
100
AcDbLine
 10
362.084315060965
 20
277.676470588235
 11
362.084315060965
 21
272.323529411764
  0
LINE
  5
1F5
100
AcDbEntity
  8
1
  6
CONTINUOUS
 62
           2
100
AcDbLine
 10
360.35490329626
 20
277.408823529411
 11
360.35490329626
 21
272.591176470587
  0
LINE
  5
1F4
100
AcDbEntity
  8
1
  6
CONTINUOUS
 62
           2
100
AcDbLine
 10
361.013726825672
 20
272.591176470587
 11
361.013726825672
 21
277.408823529411
  0
LINE
  5
1F3
100
AcDbEntity
  8
1
  6
CONTINUOUS
 62
           2
100
AcDbLine
 10
360.622550355083
 20
277.676470588235
 11
360.746079766848
 21
277.676470588235
  0
LINE
  5
1F2
100
AcDbEntity
  8
1
  6
CONTINUOUS
 62
           2
100
AcDbLine
 10
360.746079766848
 20
272.323529411764
 11
360.622550355083
 21
272.323529411764
  0
LINE
  5
1F1
100
AcDbEntity
  8
1
  6
CONTINUOUS
 62
           2
100
AcDbLine
 10
360.107844472731
 20
271.499999999999
 11
361.260785649201
 21
271.499999999999
  0
LINE
  5
1F0
100
AcDbEntity
  8
1
  6
CONTINUOUS
 62
           2
100
AcDbLine
 10
360.107844472731
 20
278.499999999999
 11
361.260785649201
 21
278.499999999999
  0
LINE
  5
1EF
100
AcDbEntity
  8
1
  6
CONTINUOUS
 62
           2
100
AcDbLine
 10
359.284315060966
 20
272.323529411764
 11
359.284315060966
 21
277.676470588235
  0
LINE
  5
1EE
100
AcDbEntity
  8
1
  6
CONTINUOUS
 62
           7
100
AcDbLine
 10
280.666025403782
 20
269.7
 11
280.866025403782
 21
269.7
  0
LINE
  5
1ED
100
AcDbEntity
  8
1
  6
CONTINUOUS
 62
           7
100
AcDbLine
 10
279.866025403782
 20
270.5
 11
280.666025403782
 21
269.7
  0
LINE
  5
1EC
100
AcDbEntity
  8
1
  6
CONTINUOUS
 62
           7
100
AcDbLine
 10
271.866025403782
 20
270.5
 11
279.866025403782
 21
270.5
  0
LINE
  5
1EB
100
AcDbEntity
  8
1
  6
CONTINUOUS
 62
           7
100
AcDbLine
 10
279.866025403782
 20
287.5
 11
280.666025403782
 21
288.3
  0
LINE
  5
1EA
100
AcDbEntity
  8
1
  6
CONTINUOUS
 62
           7
100
AcDbLine
 10
271.866025403782
 20
287.5
 11
279.866025403782
 21
287.5
  0
LINE
  5
1E9
100
AcDbEntity
  8
1
  6
CONTINUOUS
 62
           7
100
AcDbLine
 10
271.866025403782
 20
287.5
 11
271.866025403782
 21
270.5
  0
LINE
  5
1E8
100
AcDbEntity
  8
1
  6
CONTINUOUS
 62
           7
100
AcDbLine
 10
280.866025403782
 20
288.3
 11
280.666025403782
 21
288.3
  0
LINE
  5
1E7
100
AcDbEntity
  8
1
  6
CONTINUOUS
 62
           7
100
AcDbLine
 10
279.866025403782
 20
270.5
 11
279.866025403782
 21
287.5
  0
LINE
  5
1E6
100
AcDbEntity
  8
1
  6
CONTINUOUS
 62
           7
100
AcDbLine
 10
280.666025403782
 20
269.7
 11
280.666025403782
 21
288.3
  0
LINE
  5
1E5
100
AcDbEntity
  8
1
  6
CONTINUOUS
 62
           7
100
AcDbLine
 10
281.443375672972
 20
262.0
 11
289.388675134592
 21
262.0
  0
LINE
  5
1E4
100
AcDbEntity
  8
1
  6
CONTINUOUS
 62
           7
100
AcDbLine
 10
281.443375672972
 20
262.0
 11
280.866025403782
 21
263.0
  0
LINE
  5
1E3
100
AcDbEntity
  8
1
  6
CONTINUOUS
 62
           7
100
AcDbLine
 10
289.388675134592
 20
262.0
 11
289.966025403782
 21
263.0
  0
LINE
  5
1E2
100
AcDbEntity
  8
1
  6
CONTINUOUS
 62
           7
100
AcDbLine
 10
289.966025403782
 20
263.0
 11
289.966025403782
 21
295.0
  0
LINE
  5
1E1
100
AcDbEntity
  8
1
  6
CONTINUOUS
 62
           7
100
AcDbLine
 10
289.388675134592
 20
296.0
 11
281.443375672972
 21
296.0
  0
LINE
  5
1E0
100
AcDbEntity
  8
1
  6
CONTINUOUS
 62
           7
100
AcDbLine
 10
280.866025403782
 20
295.0
 11
280.866025403782
 21
263.0
  0
LINE
  5
1DF
100
AcDbEntity
  8
1
  6
CONTINUOUS
 62
           7
100
AcDbLine
 10
280.866025403782
 20
295.0
 11
281.443375672972
 21
296.0
  0
LINE
  5
1DE
100
AcDbEntity
  8
1
  6
CONTINUOUS
 62
           7
100
AcDbLine
 10
289.966025403782
 20
295.0
 11
289.388675134592
 21
296.0
  0
LINE
  5
1DD
100
AcDbEntity
  8
1
  6
CONTINUOUS
 62
           7
100
AcDbLine
 10
281.443375672972
 20
289.984125137282
 11
289.388675134592
 21
289.984125137282
  0
LINE
  5
1DC
100
AcDbEntity
  8
1
  6
CONTINUOUS
 62
           7
100
AcDbLine
 10
289.388675134592
 20
289.984125137282
 11
289.388675134592
 21
284.744562646538
  0
LINE
  5
1DB
100
AcDbEntity
  8
1
  6
CONTINUOUS
 62
           7
100
AcDbLine
 10
289.388675134592
 20
284.744562646538
 11
281.443375672972
 21
284.744562646538
  0
LINE
  5
1DA
100
AcDbEntity
  8
1
  6
CONTINUOUS
 62
           7
100
AcDbLine
 10
281.443375672972
 20
284.744562646538
 11
281.443375672972
 21
289.984125137282
  0
LINE
  5
1D9
100
AcDbEntity
  8
1
  6
CONTINUOUS
 62
           7
100
AcDbLine
 10
281.443375672972
 20
273.255437353462
 11
289.388675134592
 21
273.255437353462
  0
LINE
  5
1D8
100
AcDbEntity
  8
1
  6
CONTINUOUS
 62
           7
100
AcDbLine
 10
289.388675134592
 20
273.255437353462
 11
289.388675134592
 21
268.015874862718
  0
LINE
  5
1D7
100
AcDbEntity
  8
1
  6
CONTINUOUS
 62
           7
100
AcDbLine
 10
289.388675134592
 20
268.015874862718
 11
281.443375672972
 21
268.015874862718
  0
LINE
  5
1D6
100
AcDbEntity
  8
1
  6
CONTINUOUS
 62
           7
100
AcDbLine
 10
281.443375672972
 20
268.015874862718
 11
281.443375672972
 21
273.255437353462
  0
LINE
  5
1D5
100
AcDbEntity
  8
1
  6
CONTINUOUS
 62
           7
100
AcDbLine
 10
339.999999999997
 20
271.5
 11
339.999999999997
 21
271.0
  0
LINE
  5
1D4
100
AcDbEntity
  8
1
  6
CONTINUOUS
 62
           7
100
AcDbLine
 10
324.999999999998
 20
284.0
 11
324.999999999998
 21
284.5
  0
LINE
  5
1D3
100
AcDbEntity
  8
1
  6
DOT_CENTER
 62
           2
100
AcDbLine
 10
310.599999999998
 20
279.0
 11
310.599999999998
 21
238.776355692747
  0
LINE
  5
1D2
100
AcDbEntity
  8
1
  6
CONTINUOUS
 62
           7
100
AcDbLine
 10
325.534123401782
 20
284.0
 11
324.999999999998
 21
284.0
  0
LINE
  5
1D1
100
AcDbEntity
  8
1
  6
CONTINUOUS
 62
           7
100
AcDbLine
 10
327.534123401782
 20
283.458499999999
 11
325.534123401782
 21
283.458499999999
  0
LINE
  5
1D0
100
AcDbEntity
  8
1
  6
CONTINUOUS
 62
           7
100
AcDbLine
 10
327.534123401782
 20
284.773502691896
 11
330.087541414396
 21
284.773502691896
  0
LINE
  5
1CF
100
AcDbEntity
  8
1
  6
CONTINUOUS
 62
           7
100
AcDbLine
 10
330.087541414396
 20
284.773502691896
 11
330.534123401782
 21
284.0
  0
LINE
  5
1CE
100
AcDbEntity
  8
1
  6
CONTINUOUS
 62
           7
100
AcDbLine
 10
325.534123401782
 20
274.0
 11
325.534123401782
 21
284.0
  0
LINE
  5
1CD
100
AcDbEntity
  8
1
  6
CONTINUOUS
 62
           7
100
AcDbLine
 10
325.534123401782
 20
274.541499999999
 11
327.534123401782
 21
274.541499999999
  0
LINE
  5
1CC
100
AcDbEntity
  8
1
  6
CONTINUOUS
 62
           7
100
AcDbLine
 10
330.087541414396
 20
273.226497308103
 11
327.534123401782
 21
273.226497308103
  0
LINE
  5
1CB
100
AcDbEntity
  8
1
  6
CONTINUOUS
 62
           7
100
AcDbLine
 10
327.534123401782
 20
284.773502691896
 11
327.534123401782
 21
273.226497308103
  0
LINE
  5
1CA
100
AcDbEntity
  8
1
  6
CONTINUOUS
 62
           7
100
AcDbLine
 10
330.534123401782
 20
274.0
 11
330.087541414396
 21
273.226497308103
  0
LINE
  5
1C9
100
AcDbEntity
  8
1
  6
CONTINUOUS
 62
           7
100
AcDbLine
 10
330.534123401782
 20
274.0
 11
330.534123401782
 21
280.549999999999
  0
LINE
  5
1C8
100
AcDbEntity
  8
1
  6
CONTINUOUS
 62
           7
100
AcDbLine
 10
330.534123401782
 20
284.0
 11
330.534123401782
 21
280.5
  0
LINE
  5
1C7
100
AcDbEntity
  8
1
  6
CONTINUOUS
 62
           7
100
AcDbLine
 10
330.534123401782
 20
277.449999999999
 11
330.534123401782
 21
277.5
  0
LINE
  5
1C6
100
AcDbEntity
  8
1
  6
CONTINUOUS
 62
           2
100
AcDbLine
 10
324.999999999998
 20
283.5
 11
325.534123401782
 21
283.5
  0
LINE
  5
1C5
100
AcDbEntity
  8
1
  6
CONTINUOUS
 62
           2
100
AcDbLine
 10
324.999999999998
 20
274.5
 11
325.534123401782
 21
274.5
  0
LINE
  5
1C4
100
AcDbEntity
  8
1
  6
CONTINUOUS
 62
           7
100
AcDbLine
 10
324.999999999998
 20
274.0
 11
325.534123401782
 21
274.0
  0
LINE
  5
1C3
100
AcDbEntity
  8
1
  6
CONTINUOUS
 62
           7
100
AcDbLine
 10
327.534123401782
 20
281.886751345948
 11
330.087541414397
 21
281.886751345948
  0
LINE
  5
1C2
100
AcDbEntity
  8
1
  6
CONTINUOUS
 62
           7
100
AcDbLine
 10
327.534123401782
 20
276.113248654052
 11
330.087541414397
 21
276.113248654052
  0
LINE
  5
1C1
100
AcDbEntity
  8
1
  6
CONTINUOUS
 62
           2
100
AcDbLine
 10
355.499999999997
 20
238.5
 11
355.499999999997
 21
233.63070303171
  0
LINE
  5
1C0
100
AcDbEntity
  8
1
  6
CONTINUOUS
 62
           2
100
AcDbLine
 10
348.499999999997
 20
238.5
 11
348.499999999997
 21
233.630703031705
  0
LINE
  5
1BF
100
AcDbEntity
  8
1
  6
CONTINUOUS
 62
           2
100
AcDbLine
 10
355.999999999996
 20
231.130703031707
 11
355.499999999997
 21
233.63070303171
  0
LINE
  5
1BE
100
AcDbEntity
  8
1
  6
CONTINUOUS
 62
           2
100
AcDbLine
 10
347.999999999996
 20
231.130703031707
 11
348.499999999997
 21
233.630703031705
  0
LINE
  5
1BD
100
AcDbEntity
  8
1
  6
CONTINUOUS
 62
           7
100
AcDbLine
 10
355.999999999996
 20
231.130703031707
 11
357.249999999997
 21
230.40901519522
  0
LINE
  5
1BC
100
AcDbEntity
  8
1
  6
CONTINUOUS
 62
           7
100
AcDbLine
 10
357.249999999997
 20
223.852390868194
 11
355.999999999997
 21
223.130703031707
  0
LINE
  5
1BB
100
AcDbEntity
  8
1
  6
CONTINUOUS
 62
           7
100
AcDbLine
 10
357.249999999997
 20
230.40901519522
 11
357.249999999997
 21
223.852390868194
  0
LINE
  5
1BA
100
AcDbEntity
  8
1
  6
CONTINUOUS
 62
           2
100
AcDbLine
 10
352.424004117034
 20
223.852390868194
 11
351.57599588296
 21
223.852390868194
  0
LINE
  5
1B9
100
AcDbEntity
  8
1
  6
CONTINUOUS
 62
           2
100
AcDbLine
 10
352.424004117034
 20
230.40901519522
 11
351.57599588296
 21
230.40901519522
  0
LINE
  5
1B8
100
AcDbEntity
  8
1
  6
CONTINUOUS
 62
           2
100
AcDbLine
 10
351.57599588296
 20
230.40901519522
 11
351.57599588296
 21
223.852390868194
  0
LINE
  5
1B7
100
AcDbEntity
  8
1
  6
CONTINUOUS
 62
           2
100
AcDbLine
 10
352.424004117034
 20
223.852390868194
 11
352.424004117034
 21
230.40901519522
  0
LINE
  5
1B6
100
AcDbEntity
  8
1
  6
CONTINUOUS
 62
           7
100
AcDbLine
 10
355.999999999997
 20
223.130703031707
 11
347.999999999997
 21
223.130703031707
  0
LINE
  5
1B5
100
AcDbEntity
  8
1
  6
CONTINUOUS
 62
           7
100
AcDbLine
 10
347.999999999997
 20
223.130703031707
 11
346.749999999997
 21
223.852390868194
  0
LINE
  5
1B4
100
AcDbEntity
  8
1
  6
CONTINUOUS
 62
           7
100
AcDbLine
 10
346.749999999997
 20
223.852390868194
 11
346.749999999997
 21
230.40901519522
  0
LINE
  5
1B3
100
AcDbEntity
  8
1
  6
CONTINUOUS
 62
           7
100
AcDbLine
 10
346.749999999997
 20
230.40901519522
 11
347.999999999996
 21
231.130703031707
  0
LINE
  5
1B2
100
AcDbEntity
  8
1
  6
CONTINUOUS
 62
           7
100
AcDbLine
 10
347.999999999996
 20
231.130703031707
 11
355.999999999996
 21
231.130703031707
  0
LINE
  5
1B1
100
AcDbEntity
  8
1
  6
DOT_CENTER
 62
           2
100
AcDbLine
 10
351.999999999997
 20
265.986977253355
 11
351.999999999997
 21
220.858221053469
  0
LINE
  5
1B0
100
AcDbEntity
  8
1
  6
CONTINUOUS
 62
           7
100
AcDbLine
 10
347.999999999997
 20
238.5
 11
347.999999999996
 21
231.130703031707
  0
LINE
  5
1AF
100
AcDbEntity
  8
1
  6
CONTINUOUS
 62
           7
100
AcDbLine
 10
355.999999999997
 20
238.5
 11
355.999999999996
 21
231.130703031707
  0
LINE
  5
1AE
100
AcDbEntity
  8
1
  6
CONTINUOUS
 62
           7
100
AcDbLine
 10
383.730956196797
 20
245.220263011961
 11
380.83317871793
 21
245.996720147269
  0
LINE
  5
1AD
100
AcDbEntity
  8
1
  6
CONTINUOUS
 62
           7
100
AcDbLine
 10
384.094298684574
 20
258.167385556999
 11
380.470832054786
 21
244.644423990464
  0
LINE
  5
1AC
100
AcDbEntity
  8
1
  6
CONTINUOUS
 62
           7
100
AcDbLine
 10
386.862666642182
 20
256.907965508734
 11
383.498019056205
 21
244.350929768301
  0
LINE
  5
1AB
100
AcDbEntity
  8
1
  6
CONTINUOUS
 62
           7
100
AcDbLine
 10
394.266549446238
 20
253.630005865508
 11
391.548949472896
 21
243.487784690342
  0
LINE
  5
1AA
100
AcDbEntity
  8
1
  6
CONTINUOUS
 62
           7
100
AcDbLine
 10
390.018018383656
 20
242.603901213859
 11
391.548949472896
 21
243.487784690342
  0
LINE
  5
1A9
100
AcDbEntity
  8
1
  6
CONTINUOUS
 62
           2
100
AcDbLine
 10
391.120288767908
 20
243.240297316927
 11
383.730956196797
 21
245.220263011961
  0
LINE
  5
1A8
100
AcDbEntity
  8
1
  6
CONTINUOUS
 62
           7
100
AcDbLine
 10
390.018018383656
 20
242.603901213859
 11
383.498019056205
 21
244.350929768301
  0
LINE
  5
1A7
100
AcDbEntity
  8
1
  6
CONTINUOUS
 62
           7
100
AcDbLine
 10
390.018018383656
 20
242.603901213859
 11
393.382665968856
 21
255.160936955698
  0
LINE
  5
1A6
100
AcDbEntity
  8
1
  6
CONTINUOUS
 62
           7
100
AcDbLine
 10
380.470832054786
 20
244.644423990464
 11
379.654335473859
 21
243.827927409536
  0
LINE
  5
1A5
100
AcDbEntity
  8
1
  6
CONTINUOUS
 62
           7
100
AcDbLine
 10
375.940061414064
 20
244.823164144326
 11
375.641202923341
 21
245.938519215977
  0
LINE
  5
1A4
100
AcDbEntity
  8
1
  6
CONTINUOUS
 62
           7
100
AcDbLine
 10
379.654335473859
 20
243.827927409536
 11
375.940061414064
 21
244.823164144326
  0
LINE
  5
1A3
100
AcDbEntity
  8
1
  6
CONTINUOUS
 62
           7
100
AcDbLine
 10
376.964609057355
 20
248.646828003862
 11
380.678883117149
 21
247.651591269072
  0
LINE
  5
1A2
100
AcDbEntity
  8
1
  6
DOT_CENTER
 62
           2
100
AcDbLine
 10
375.531627926895
 20
253.214813010656
 11
394.425817758366
 21
248.152130103672
  0
LINE
  5
1A1
100
AcDbEntity
  8
1
  6
CONTINUOUS
 62
           7
100
AcDbLine
 10
394.266549446238
 20
253.630005865508
 11
393.382665968856
 21
255.160936955698
  0
LINE
  5
1A0
100
AcDbEntity
  8
1
  6
CONTINUOUS
 62
           2
100
AcDbLine
 10
386.629729500663
 20
256.038632265322
 11
394.019062072112
 21
254.058666571555
  0
LINE
  5
19F
100
AcDbEntity
  8
1
  6
CONTINUOUS
 62
           7
100
AcDbLine
 10
386.862666642182
 20
256.907965508734
 11
393.382665968856
 21
255.160936955698
  0
LINE
  5
19E
100
AcDbEntity
  8
1
  6
CONTINUOUS
 62
           7
100
AcDbLine
 10
383.731952021662
 20
256.815089400132
 11
386.629729500663
 21
256.038632265322
  0
LINE
  5
19D
100
AcDbEntity
  8
1
  6
CONTINUOUS
 62
           7
100
AcDbLine
 10
383.79544019366
 20
259.282740628598
 11
384.094298684574
 21
258.167385556999
  0
LINE
  5
19C
100
AcDbEntity
  8
1
  6
CONTINUOUS
 62
           7
100
AcDbLine
 10
380.081166133694
 20
260.277977362752
 11
383.79544019366
 21
259.282740628598
  0
LINE
  5
19B
100
AcDbEntity
  8
1
  6
CONTINUOUS
 62
           7
100
AcDbLine
 10
379.264669552907
 20
259.461480781683
 11
380.081166133694
 21
260.277977362752
  0
LINE
  5
19A
100
AcDbEntity
  8
1
  6
CONTINUOUS
 62
           7
100
AcDbLine
 10
382.770892551025
 20
255.459076768886
 11
379.056618491059
 21
256.454313503039
  0
LINE
  5
199
100
AcDbEntity
  8
1
  6
DOT_CENTER
 62
           2
100
AcDbLine
 10
111.522339227997
 20
279.0
 11
339.999999999999
 21
279.0
  0
LINE
  5
198
100
AcDbEntity
  8
1
  6
CONTINUOUS
 62
           7
100
AcDbLine
 10
337.999999999997
 20
277.5
 11
330.534123401782
 21
277.5
  0
LINE
  5
197
100
AcDbEntity
  8
1
  6
CONTINUOUS
 62
           7
100
AcDbLine
 10
330.534123401782
 20
280.5
 11
337.999999999997
 21
280.5
  0
LINE
  5
196
100
AcDbEntity
  8
1
  6
CONTINUOUS
 62
           7
100
AcDbLine
 10
365.086474541711
 20
313.619902309057
 11
366.493332032309
 21
307.273978262778
  0
LINE
  5
195
100
AcDbEntity
  8
1
  6
CONTINUOUS
 62
           7
100
AcDbLine
 10
362.067502399726
 20
309.218722992386
 11
365.536857969982
 21
309.987860605123
  0
LINE
  5
194
100
AcDbEntity
  8
1
  6
CONTINUOUS
 62
           7
100
AcDbLine
 10
361.776540880588
 20
310.531165591
 11
365.245896450843
 21
311.300303203736
  0
LINE
  5
193
100
AcDbEntity
  8
1
  6
CONTINUOUS
 62
           7
100
AcDbLine
 10
361.149056345581
 20
313.361565418971
 11
364.618411915837
 21
314.130703031707
  0
LINE
  5
192
100
AcDbEntity
  8
1
  6
CONTINUOUS
 62
           7
100
AcDbLine
 10
364.618411915837
 20
314.130703031707
 11
365.086474541711
 21
313.619902309057
  0
LINE
  5
191
100
AcDbEntity
  8
1
  6
CONTINUOUS
 62
           7
100
AcDbLine
 10
361.149056345581
 20
313.361565418971
 11
361.073070706263
 21
313.242291856865
  0
LINE
  5
190
100
AcDbEntity
  8
1
  6
CONTINUOUS
 62
           7
100
AcDbLine
 10
362.067502399726
 20
309.218722992386
 11
361.776540880588
 21
310.531165591
  0
LINE
  5
18F
100
AcDbEntity
  8
1
  6
CONTINUOUS
 62
           7
100
AcDbLine
 10
362.025821391662
 20
308.944711238363
 11
362.067502399726
 21
309.218722992386
  0
LINE
  5
18E
100
AcDbEntity
  8
1
  6
CONTINUOUS
 62
           7
100
AcDbLine
 10
361.65093698355
 20
310.635705525921
 11
361.776540880588
 21
310.531165591
  0
LINE
  5
18D
100
AcDbEntity
  8
1
  6
CONTINUOUS
 62
           7
100
AcDbLine
 10
362.025821391662
 20
308.944711238363
 11
361.088610371383
 21
313.172196957259
  0
LINE
  5
18C
100
AcDbEntity
  8
1
  6
CONTINUOUS
 62
           7
100
AcDbLine
 10
361.088610371383
 20
313.172196957259
 11
361.149056345581
 21
313.361565418971
  0
LINE
  5
18B
100
AcDbEntity
  8
1
  6
CONTINUOUS
 62
           7
100
AcDbLine
 10
361.073070706263
 20
313.242291856865
 11
361.088610371383
 21
313.172196957259
  0
LINE
  5
18A
100
AcDbEntity
  8
1
  6
CONTINUOUS
 62
           7
100
AcDbLine
 10
364.222498863502
 20
299.498162117868
 11
364.087685636275
 21
299.644242656792
  0
LINE
  5
189
100
AcDbEntity
  8
1
  6
CONTINUOUS
 62
           7
100
AcDbLine
 10
363.595014328495
 20
302.328561945838
 11
363.525359024107
 21
302.180734088129
  0
LINE
  5
188
100
AcDbEntity
  8
1
  6
CONTINUOUS
 62
           7
100
AcDbLine
 10
363.304052809358
 20
303.641004544451
 11
363.150474615996
 21
303.871728375688
  0
LINE
  5
187
100
AcDbEntity
  8
1
  6
CONTINUOUS
 62
           7
100
AcDbLine
 10
363.595014328495
 20
302.328561945838
 11
363.304052809358
 21
303.641004544451
  0
LINE
  5
186
100
AcDbEntity
  8
1
  6
CONTINUOUS
 62
           7
100
AcDbLine
 10
364.103225301396
 20
299.574147757186
 11
364.222498863502
 21
299.498162117868
  0
LINE
  5
185
100
AcDbEntity
  8
1
  6
CONTINUOUS
 62
           7
100
AcDbLine
 10
367.900189522906
 20
300.928054216498
 11
367.691854433758
 21
300.267299730604
  0
LINE
  5
184
100
AcDbEntity
  8
1
  6
CONTINUOUS
 62
           7
100
AcDbLine
 10
367.691854433758
 20
300.267299730604
 11
364.222498863502
 21
299.498162117868
  0
LINE
  5
183
100
AcDbEntity
  8
1
  6
CONTINUOUS
 62
           7
100
AcDbLine
 10
363.995005494427
 20
300.062295760746
 11
363.506857490536
 21
299.954075953988
  0
LINE
  5
182
100
AcDbEntity
  8
1
  6
CONTINUOUS
 62
           7
100
AcDbLine
 10
360.693142509459
 20
312.645924046013
 11
361.181290513232
 21
312.754143853305
  0
LINE
  5
181
100
AcDbEntity
  8
1
  6
CONTINUOUS
 62
           7
100
AcDbLine
 10
367.064369898752
 20
303.097699558575
 11
363.595014328495
 21
302.328561945838
  0
LINE
  5
180
100
AcDbEntity
  8
1
  6
CONTINUOUS
 62
           7
100
AcDbLine
 10
366.773408379613
 20
304.410142157188
 11
363.304052809358
 21
303.641004544451
  0
LINE
  5
17F
100
AcDbEntity
  8
1
  6
CONTINUOUS
 62
           7
100
AcDbLine
 10
365.245896450843
 20
311.300303203736
 11
365.536857969982
 21
309.987860605123
  0
LINE
  5
17E
100
AcDbEntity
  8
1
  6
CONTINUOUS
 62
           7
100
AcDbLine
 10
366.773408379613
 20
304.410142157188
 11
367.064369898752
 21
303.097699558575
  0
LINE
  5
17D
100
AcDbEntity
  8
1
  6
CONTINUOUS
 62
           7
100
AcDbLine
 10
367.900189522906
 20
300.928054216498
 11
365.086474541711
 21
313.619902309057
  0
LINE
  5
17C
100
AcDbEntity
  8
1
  6
CONTINUOUS
 62
           7
100
AcDbLine
 10
364.103225301396
 20
299.574147757186
 11
361.181290513232
 21
312.754143853305
  0
LINE
  5
17B
100
AcDbEntity
  8

  6
CONTINUOUS
 62
           7
100
AcDbLine
 10
363.657961933603
 20
297.9
 11
364.104120654337
 21
295.887508064409
  0
LINE
  5
17A
100
AcDbEntity
  8

  6
CONTINUOUS
 62
           7
100
AcDbLine
 10
342.262505118963
 20
292.47380389536
 11
361.659865386073
 21
297.393253927839
  0
LINE
  5
179
100
AcDbEntity
  8
1
  6
CONTINUOUS
 62
           7
100
AcDbLine
 10
344.999999999997
 20
239.5
 11
344.999999999998
 21
244.500000000001
  0
LINE
  5
178
100
AcDbEntity
  8
1
  6
CONTINUOUS
 62
           7
100
AcDbLine
 10
345.999999999997
 20
238.5
 11
372.499999999997
 21
238.5
  0
LINE
  5
177
100
AcDbEntity
  8
1
  6
CONTINUOUS
 62
           7
100
AcDbLine
 10
373.499999999997
 20
242.008191185309
 11
373.499999999997
 21
239.5
  0
LINE
  5
176
100
AcDbEntity
  8
1
  6
CONTINUOUS
 62
           7
100
AcDbLine
 10
370.390741329381
 20
296.75
 11
363.912910795644
 21
296.75
  0
LINE
  5
175
100
AcDbEntity
  8
1
  6
CONTINUOUS
 62
           7
100
AcDbLine
 10
370.390741329381
 20
296.75
 11
388.999999999997
 21
296.75
  0
LINE
  5
174
100
AcDbEntity
  8
1
  6
CONTINUOUS
 62
           7
100
AcDbLine
 10
377.452936239059
 20
252.7
 11
384.499999999997
 21
279.0
  0
LINE
  5
173
100
AcDbEntity
  8
1
  6
CONTINUOUS
 62
           7
100
AcDbLine
 10
388.999999999997
 20
261.25
 11
379.743901834345
 21
261.25
  0
LINE
  5
172
100
AcDbEntity
  8
1
  6
CONTINUOUS
 62
           7
100
AcDbLine
 10
373.499999999998
 20
242.0
 11
373.499999999998
 21
240.0
  0
LINE
  5
171
100
AcDbEntity
  8
1
  6
CONTINUOUS
 62
           7
100
AcDbLine
 10
377.452936239059
 20
252.7
 11
374.784478718354
 21
242.741180954897
  0
LINE
  5
170
100
AcDbEntity
  8
1
  6
CONTINUOUS
 62
           7
100
AcDbLine
 10
324.999999999998
 20
274.055638787456
 11
324.999999999998
 21
284.5
  0
LINE
  5
16F
100
AcDbEntity
  8
1
  6
CONTINUOUS
 62
           7
100
AcDbLine
 10
324.499999999998
 20
271.5
 11
321.999999999997
 21
271.5
  0
LINE
  5
16E
100
AcDbEntity
  8
1
  6
CONTINUOUS
 62
           7
100
AcDbLine
 10
324.999999999998
 20
272.0
 11
324.999999999998
 21
274.0
  0
LINE
  5
16D
100
AcDbEntity
  8
1
  6
CONTINUOUS
 62
           7
100
AcDbLine
 10
299.903847658118
 20
261.499999789236
 11
316.138365001011
 21
261.5
  0
LINE
  5
16C
100
AcDbEntity
  8
1
  6
CONTINUOUS
 62
           7
100
AcDbLine
 10
316.001949756818
 20
261.5
 11
317.470600597931
 21
261.5
  0
LINE
  5
16B
100
AcDbEntity
  8
1
  6
CONTINUOUS
 62
           7
100
AcDbLine
 10
339.999999999999
 20
289.565866258401
 11
339.999999999998
 21
254.5
  0
LINE
  5
16A
100
AcDbEntity
  8
1
  6
CONTINUOUS
 62
           7
100
AcDbLine
 10
321.999999999997
 20
269.121415084611
 11
321.999999999997
 21
285.5
  0
LINE
  5
169
100
AcDbEntity
  8
1
  6
CONTINUOUS
 62
           7
100
AcDbLine
 10
324.999999999997
 20
288.5
 11
336.999999999997
 21
288.5
  0
LINE
  5
168
100
AcDbEntity
  8
1
  6
CONTINUOUS
 62
           7
100
AcDbLine
 10
326.999999999998
 20
286.5
 11
335.999999999997
 21
286.5
  0
LINE
  5
167
100
AcDbEntity
  8
1
  6
CONTINUOUS
 62
           7
100
AcDbLine
 10
337.999999999998
 20
284.5
 11
337.999999999997
 21
273.5
  0
LINE
  5
166
100
AcDbEntity
  8
1
  6
CONTINUOUS
 62
           7
100
AcDbLine
 10
337.999999999997
 20
273.5
 11
337.999999999998
 21
272.0
  0
LINE
  5
165
100
AcDbEntity
  8
1
  6
CONTINUOUS
 62
           7
100
AcDbLine
 10
338.499999999997
 20
271.5
 11
339.999999999997
 21
271.5
  0
LINE
  5
164
100
AcDbEntity
  8
1
  6
CONTINUOUS
 62
           7
100
AcDbLine
 10
373.818552892064
 20
242.0
 11
352.499999999998
 21
242.0
  0
LINE
  5
163
100
AcDbEntity
  8
1
  6
CONTINUOUS
 62
           7
100
AcDbLine
 10
344.999999999998
 20
240.0
 11
344.999999999998
 21
244.500000000001
  0
LINE
  5
162
100
AcDbEntity
  8
1
  6
CONTINUOUS
 62
           7
100
AcDbLine
 10
319.314650692103
 20
262.725739546287
 11
321.999999999997
 21
269.121415084611
  0
LINE
  5
161
100
AcDbEntity
  8
1
  6
CONTINUOUS
 62
           7
100
AcDbLine
 10
295.20869755335
 20
298.300343028409
 11
358.00911527946
 21
313.905295311867
  0
LINE
  5
160
100
AcDbEntity
  8
1
  6
CONTINUOUS
 62
           7
100
AcDbLine
 10
360.444010171433
 20
312.397199543992
 11
363.657961933603
 21
297.9
  0
LINE
  5
15F
100
AcDbEntity
  8
1
  6
CONTINUOUS
 62
           7
100
AcDbLine
 10
364.104120654337
 20
295.887508064409
 11
367.847991057555
 21
279.0
  0
LINE
  5
15E
100
AcDbEntity
  8
1
  6
CONTINUOUS
 62
           7
100
AcDbLine
 10
298.803847577291
 20
261.901923788648
 11
296.711010834416
 21
263.110223645517
  0
LINE
  5
15D
100
AcDbEntity
  8
1
  6
CONTINUOUS
 62
           7
100
AcDbLine
 10
293.068431768411
 20
263.0
 11
293.5345295161
 21
263.0
  0
LINE
  5
15C
100
AcDbEntity
  8
1
  6
CONTINUOUS
 62
           7
100
AcDbLine
 10
292.491081499221
 20
264.0
 11
293.068431768411
 21
263.0
  0
LINE
  5
15B
100
AcDbEntity
  8
1
  6
CONTINUOUS
 62
           2
100
AcDbLine
 10
290.499999999998
 20
264.5415
 11
292.499999999998
 21
264.0
  0
LINE
  5
15A
100
AcDbEntity
  8
1
  6
CONTINUOUS
 62
           7
100
AcDbLine
 10
290.499999999998
 20
264.5415
 11
290.499999999998
 21
264.0
  0
LINE
  5
159
100
AcDbEntity
  8
1
  6
CONTINUOUS
 62
           7
100
AcDbLine
 10
293.808918500773
 20
295.0
 11
295.799068736115
 21
298.447041322308
  0
LINE
  5
158
100
AcDbEntity
  8
1
  6
CONTINUOUS
 62
           7
100
AcDbLine
 10
293.042499189226
 20
295.0
 11
293.808918500773
 21
295.0
  0
LINE
  5
157
100
AcDbEntity
  8
1
  6
CONTINUOUS
 62
           7
100
AcDbLine
 10
292.499999999997
 20
294.0
 11
293.077350269187
 21
295.0
  0
LINE
  5
156
100
AcDbEntity
  8
1
  6
CONTINUOUS
 62
           2
100
AcDbLine
 10
292.499999999997
 20
294.0
 11
290.499999999997
 21
293.4585
  0
LINE
  5
155
100
AcDbEntity
  8
1
  6
CONTINUOUS
 62
           7
100
AcDbLine
 10
290.499999999997
 20
294.0
 11
290.499999999997
 21
293.4585
  0
LINE
  5
154
100
AcDbEntity
  8
1
  6
CONTINUOUS
 62
           2
100
AcDbLine
 10
290.499999999997
 20
293.4585
 11
289.966025403782
 21
293.4585
  0
LINE
  5
153
100
AcDbEntity
  8
1
  6
CONTINUOUS
 62
           7
100
AcDbLine
 10
360.114935518407
 20
313.132306351064
 11
360.563278741037
 21
313.231701650552
  0
LINE
  5
152
100
AcDbEntity
  8
1
  6
CONTINUOUS
 62
           7
100
AcDbLine
 10
360.563278741037
 20
313.231701650552
 11
360.693142509459
 21
312.645924046013
  0
LINE
  5
151
100
AcDbEntity
  8
1
  6
CONTINUOUS
 62
           7
100
AcDbLine
 10
363.506857490536
 20
299.954075953988
 11
360.693142509459
 21
312.645924046013
  0
LINE
  5
150
100
AcDbEntity
  8
1
  6
CONTINUOUS
 62
           7
100
AcDbLine
 10
363.636721258958
 20
299.368298349449
 11
363.32557112953
 21
299.299318026474
  0
LINE
  5
14F
100
AcDbEntity
  8
1
  6
CONTINUOUS
 62
           7
100
AcDbLine
 10
363.506857490536
 20
299.954075953988
 11
363.636721258958
 21
299.368298349449
  0
LINE
  5
14E
100
AcDbEntity
  8
1
  6
CONTINUOUS
 62
           7
100
AcDbLine
 10
289.966025403782
 20
294.0
 11
292.499999999997
 21
294.0
  0
LINE
  5
14D
100
AcDbEntity
  8
1
  6
CONTINUOUS
 62
           2
100
AcDbLine
 10
289.966025403782
 20
264.5415
 11
290.499999999998
 21
264.5415
  0
LINE
  5
14C
100
AcDbEntity
  8
1
  6
CONTINUOUS
 62
           7
100
AcDbLine
 10
289.966025403782
 20
264.0
 11
292.491081499221
 21
264.0
  0
LINE
  5
14B
100
AcDbEntity
  8
1
  6
CONTINUOUS
 62
           7
100
AcDbLine
 10
116.566025403782
 20
283.5
 11
124.066025403782
 21
283.5
  0
LINE
  5
14A
100
AcDbEntity
  8
1
  6
CONTINUOUS
 62
           7
100
AcDbLine
 10
124.066025403782
 20
283.0
 11
124.566025403782
 21
283.0
  0
LINE
  5
149
100
AcDbEntity
  8
1
  6
CONTINUOUS
 62
           7
100
AcDbLine
 10
124.066025403782
 20
274.5
 11
120.366025403782
 21
274.5
  0
LINE
  5
148
100
AcDbEntity
  8
1
  6
CONTINUOUS
 62
           7
100
AcDbLine
 10
116.566025403782
 20
282.193375672974
 11
119.066025403782
 21
280.75
  0
LINE
  5
147
100
AcDbEntity
  8
1
  6
CONTINUOUS
 62
           7
100
AcDbLine
 10
116.566025403782
 20
283.5
 11
116.566025403782
 21
281.962435565299
  0
LINE
  5
146
100
AcDbEntity
  8
1
  6
CONTINUOUS
 62
           7
100
AcDbLine
 10
116.566025403782
 20
281.962435565299
 11
118.866025403782
 21
280.634529946162
  0
LINE
  5
145
100
AcDbEntity
  8
1
  6
CONTINUOUS
 62
           7
100
AcDbLine
 10
118.866025403782
 20
277.25
 11
118.866025403782
 21
276.0
  0
LINE
  5
144
100
AcDbEntity
  8
1
  6
CONTINUOUS
 62
           7
100
AcDbLine
 10
118.866025403782
 20
280.634529946162
 11
118.866025403782
 21
277.25
  0
LINE
  5
143
100
AcDbEntity
  8
1
  6
CONTINUOUS
 62
           7
100
AcDbLine
 10
124.066025403782
 20
283.5
 11
124.066025403782
 21
274.5
  0
LINE
  5
142
100
AcDbEntity
  8
1
  6
CONTINUOUS
 62
           7
100
AcDbLine
 10
124.566025403782
 20
275.0
 11
124.066025403782
 21
275.0
  0
LINE
  5
141
100
AcDbEntity
  8
1
  6
CONTINUOUS
 62
           7
100
AcDbLine
 10
124.566025403782
 20
283.5
 11
268.866025403782
 21
283.5
  0
LINE
  5
140
100
AcDbEntity
  8
1
  6
CONTINUOUS
 62
           2
100
AcDbLine
 10
268.056505660334
 20
283.5
 11
268.866025403782
 21
283.283089838486
  0
LINE
  5
13F
100
AcDbEntity
  8
1
  6
CONTINUOUS
 62
           2
100
AcDbLine
 10
268.056505660334
 20
274.5
 11
268.866025403782
 21
274.716910161514
  0
LINE
  5
13E
100
AcDbEntity
  8
1
  6
CONTINUOUS
 62
           7
100
AcDbLine
 10
124.566025403782
 20
274.5
 11
124.566025403782
 21
283.5
  0
LINE
  5
13D
100
AcDbEntity
  8
1
  6
CONTINUOUS
 62
           7
100
AcDbLine
 10
268.866025403782
 20
274.5
 11
124.566025403782
 21
274.5
  0
LINE
  5
13C
100
AcDbEntity
  8
1
  6
CONTINUOUS
 62
           7
100
AcDbLine
 10
314.800879438888
 20
256.946410161514
 11
314.800879438888
 21
261.1
  0
LINE
  5
13B
100
AcDbEntity
  8
1
  6
CONTINUOUS
 62
           7
100
AcDbLine
 10
313.456571371415
 20
256.946410161514
 11
314.800879438888
 21
256.946410161514
  0
LINE
  5
13A
100
AcDbEntity
  8
1
  6
CONTINUOUS
 62
           7
100
AcDbLine
 10
313.456571371415
 20
261.1
 11
313.456571371415
 21
256.946410161514
  0
LINE
  5
139
100
AcDbEntity
  8
1
  6
CONTINUOUS
 62
           7
100
AcDbLine
 10
307.74342862858
 20
256.946410161514
 11
307.74342862858
 21
261.1
  0
LINE
  5
138
100
AcDbEntity
  8
1
  6
CONTINUOUS
 62
           7
100
AcDbLine
 10
306.399120561106
 20
256.946410161514
 11
307.74342862858
 21
256.946410161514
  0
LINE
  5
137
100
AcDbEntity
  8
1
  6
CONTINUOUS
 62
           7
100
AcDbLine
 10
306.399120561106
 20
261.1
 11
306.399120561106
 21
256.946410161514
  0
LINE
  5
136
100
AcDbEntity
  8
1
  6
CONTINUOUS
 62
           7
100
AcDbLine
 10
271.577350269187
 20
272.0
 11
269.154700538376
 21
272.0
  0
LINE
  5
135
100
AcDbEntity
  8
1
  6
CONTINUOUS
 62
           7
100
AcDbLine
 10
271.577350269187
 20
272.0
 11
271.866025403782
 21
272.5
  0
LINE
  5
134
100
AcDbEntity
  8
1
  6
CONTINUOUS
 62
           7
100
AcDbLine
 10
268.866025403782
 20
279.0
 11
268.866025403782
 21
272.5
  0
LINE
  5
133
100
AcDbEntity
  8
1
  6
CONTINUOUS
 62
           7
100
AcDbLine
 10
268.866025403782
 20
272.5
 11
269.154700538376
 21
272.0
  0
LINE
  5
132
100
AcDbEntity
  8
1
  6
CONTINUOUS
 62
           7
100
AcDbLine
 10
271.866025403781
 20
285.5
 11
271.866025403782
 21
272.5
  0
LINE
  5
131
100
AcDbEntity
  8
1
  6
CONTINUOUS
 62
           7
100
AcDbLine
 10
269.154700538376
 20
286.0
 11
271.577350269187
 21
286.0
  0
LINE
  5
130
100
AcDbEntity
  8
1
  6
CONTINUOUS
 62
           7
100
AcDbLine
 10
271.866025403781
 20
285.5
 11
271.577350269187
 21
286.0
  0
LINE
  5
12F
100
AcDbEntity
  8
1
  6
CONTINUOUS
 62
           7
100
AcDbLine
 10
268.866025403782
 20
285.5
 11
268.866025403782
 21
279.0
  0
LINE
  5
12E
100
AcDbEntity
  8
1
  6
CONTINUOUS
 62
           7
100
AcDbLine
 10
269.154700538376
 20
286.0
 11
268.866025403782
 21
285.5
  0
LINE
  5
12D
100
AcDbEntity
  8
1
  6
CONTINUOUS
 62
           7
100
AcDbLine
 10
304.349999999998
 20
256.6
 11
316.849999999997
 21
256.600000000001
  0
LINE
  5
12C
100
AcDbEntity
  8
1
  6
CONTINUOUS
 62
           7
100
AcDbLine
 10
316.499999999997
 20
261.1
 11
304.699999999997
 21
261.1
  0
LINE
  5
12B
100
AcDbEntity
  8
1
  6
CONTINUOUS
 62
           7
100
AcDbLine
 10
317.099999999997
 20
246.35
 11
304.099999999997
 21
246.35
  0
LINE
  5
12A
100
AcDbEntity
  8
1
  6
CONTINUOUS
 62
           7
100
AcDbLine
 10
304.099999999997
 20
251.878312163513
 11
317.099999999998
 21
251.878312163513
  0
LINE
  5
129
100
AcDbEntity
  8
1
  6
CONTINUOUS
 62
           7
100
AcDbLine
 10
392.749999999997
 20
289.632957220995
 11
392.749999999997
 21
285.446898479114
  0
LINE
  5
128
100
AcDbEntity
  8
1
  6
CONTINUOUS
 62
           7
100
AcDbLine
 10
392.749999999997
 20
296.25
 11
394.499999999997
 21
294.5
  0
LINE
  5
127
100
AcDbEntity
  8
1
  6
CONTINUOUS
 62
           7
100
AcDbLine
 10
392.749999999997
 20
289.632957220995
 11
389.499999999997
 21
289.632957220995
  0
LINE
  5
126
100
AcDbEntity
  8
1
  6
CONTINUOUS
 62
           7
100
AcDbLine
 10
392.749999999997
 20
285.446898479114
 11
389.499999999997
 21
285.446898479114
  0
LINE
  5
125
100
AcDbEntity
  8
1
  6
CONTINUOUS
 62
           7
100
AcDbLine
 10
392.749999999997
 20
296.25
 11
389.499999999997
 21
296.25
  0
LINE
  5
124
100
AcDbEntity
  8
1
  6
CONTINUOUS
 62
           2
100
AcDbLine
 10
412.440498993647
 20
293.772116295184
 11
397.240498993647
 21
293.772116295183
  0
LINE
  5
123
100
AcDbEntity
  8
1
  6
CONTINUOUS
 62
           2
100
AcDbLine
 10
397.240498993647
 20
293.488887394336
 11
412.440498993647
 21
293.488887394336
  0
LINE
  5
122
100
AcDbEntity
  8
1
  6
CONTINUOUS
 62
           2
100
AcDbLine
 10
412.440498993647
 20
293.095389311789
 11
397.240498993647
 21
293.095389311789
  0
LINE
  5
121
100
AcDbEntity
  8
1
  6
CONTINUOUS
 62
           2
100
AcDbLine
 10
397.240498993647
 20
292.59461680555
 11
412.440498993647
 21
292.59461680555
  0
LINE
  5
120
100
AcDbEntity
  8
1
  6
CONTINUOUS
 62
           2
100
AcDbLine
 10
412.440498993647
 20
291.990381056767
 11
397.240498993647
 21
291.990381056767
  0
LINE
  5
11F
100
AcDbEntity
  8
1
  6
CONTINUOUS
 62
           2
100
AcDbLine
 10
397.240498993647
 20
291.287280664335
 11
412.440498993647
 21
291.287280664335
  0
LINE
  5
11E
100
AcDbEntity
  8
1
  6
CONTINUOUS
 62
           2
100
AcDbLine
 10
412.440498993647
 20
290.490666646785
 11
397.240498993647
 21
290.490666646785
  0
LINE
  5
11D
100
AcDbEntity
  8
1
  6
CONTINUOUS
 62
           2
100
AcDbLine
 10
397.240498993647
 20
289.606601717799
 11
412.440498993647
 21
289.606601717799
  0
LINE
  5
11C
100
AcDbEntity
  8
1
  6
CONTINUOUS
 62
           2
100
AcDbLine
 10
412.440498993647
 20
288.641814145299
 11
397.240498993647
 21
288.641814145299
  0
LINE
  5
11B
100
AcDbEntity
  8
1
  6
CONTINUOUS
 62
           2
100
AcDbLine
 10
412.440498993647
 20
287.603646545266
 11
397.240498993647
 21
287.603646545266
  0
LINE
  5
11A
100
AcDbEntity
  8
1
  6
CONTINUOUS
 62
           2
100
AcDbLine
 10
397.240498993647
 20
286.5
 11
412.440498993647
 21
286.5
  0
LINE
  5
119
100
AcDbEntity
  8
1
  6
CONTINUOUS
 62
           2
100
AcDbLine
 10
412.440498993647
 20
285.339273926111
 11
397.240498993647
 21
285.339273926111
  0
LINE
  5
118
100
AcDbEntity
  8
1
  6
CONTINUOUS
 62
           2
100
AcDbLine
 10
397.240498993647
 20
284.130302149886
 11
412.440498993647
 21
284.130302149886
  0
LINE
  5
117
100
AcDbEntity
  8
1
  6
CONTINUOUS
 62
           2
100
AcDbLine
 10
412.440498993647
 20
282.882285676538
 11
397.240498993647
 21
282.882285676538
  0
LINE
  5
116
100
AcDbEntity
  8
1
  6
CONTINUOUS
 62
           2
100
AcDbLine
 10
412.440498993647
 20
281.604722665005
 11
397.240498993647
 21
281.604722665005
  0
LINE
  5
115
100
AcDbEntity
  8
1
  6
CONTINUOUS
 62
           2
100
AcDbLine
 10
412.440498993647
 20
280.307336141216
 11
397.240498993647
 21
280.307336141216
  0
LINE
  5
114
100
AcDbEntity
  8
1
  6
CONTINUOUS
 62
           7
100
AcDbLine
 10
396.240498993647
 20
293.0
 11
397.240498993647
 21
294.0
  0
LINE
  5
113
100
AcDbEntity
  8
1
  6
CONTINUOUS
 62
           7
100
AcDbLine
 10
412.440498993647
 20
294.0
 11
413.440498993647
 21
293.0
  0
LINE
  5
112
100
AcDbEntity
  8
1
  6
CONTINUOUS
 62
           7
100
AcDbLine
 10
397.240498993647
 20
294.0
 11
412.440498993647
 21
294.0
  0
LINE
  5
111
100
AcDbEntity
  8
1
  6
CONTINUOUS
 62
           7
100
AcDbLine
 10
396.240498993647
 20
291.0
 11
394.499999999997
 21
291.0
  0
LINE
  5
110
100
AcDbEntity
  8
1
  6
CONTINUOUS
 62
           7
100
AcDbLine
 10
389.499999999997
 20
296.25
 11
389.499999999997
 21
293.350000000001
  0
LINE
  5
10F
100
AcDbEntity
  8
1
  6
DOT_CENTER
 62
           2
100
AcDbLine
 10
341.599999999998
 20
255.5
 11
362.399999999997
 21
255.5
  0
LINE
  5
10E
100
AcDbEntity
  8
1
  6
PHANTOM
 62
           2
100
AcDbLine
 10
339.999999999998
 20
287.5
 11
339.999999999997
 21
271.5
  0
LINE
  5
10D
100
AcDbEntity
  8
1
  6
PHANTOM
 62
           2
100
AcDbLine
 10
321.999999999997
 20
287.5
 11
321.999999999997
 21
271.5
  0
LINE
  5
10C
100
AcDbEntity
  8
1
  6
PHANTOM
 62
           2
100
AcDbLine
 10
322.193702750874
 20
271.5
 11
339.801439589627
 21
271.5
  0
LINE
  5
10B
100
AcDbEntity
  8
1
  6
PHANTOM
 62
           2
100
AcDbLine
 10
322.999999999997
 20
288.5
 11
338.999999999998
 21
288.5
  0
LINE
  5
10A
100
AcDbEntity
  8
1
  6
CONTINUOUS
 62
           7
100
AcDbLine
 10
392.749999999997
 20
272.553101520886
 11
392.749999999997
 21
268.367042779006
  0
LINE
  5
109
100
AcDbEntity
  8
1
  6
CONTINUOUS
 62
           7
100
AcDbLine
 10
394.499999999997
 20
263.5
 11
392.749999999997
 21
261.75
  0
LINE
  5
108
100
AcDbEntity
  8
1
  6
CONTINUOUS
 62
           7
100
AcDbLine
 10
389.499999999997
 20
268.367042779006
 11
392.749999999997
 21
268.367042779006
  0
LINE
  5
107
100
AcDbEntity
  8
1
  6
CONTINUOUS
 62
           7
100
AcDbLine
 10
389.499999999997
 20
272.553101520886
 11
392.749999999997
 21
272.553101520886
  0
LINE
  5
106
100
AcDbEntity
  8
1
  6
CONTINUOUS
 62
           7
100
AcDbLine
 10
394.499999999997
 20
263.5
 11
394.499999999997
 21
294.5
  0
LINE
  5
105
100
AcDbEntity
  8
1
  6
CONTINUOUS
 62
           7
100
AcDbLine
 10
389.499999999997
 20
261.75
 11
392.749999999997
 21
261.75
  0
LINE
  5
104
100
AcDbEntity
  8
1
  6
CONTINUOUS
 62
           2
100
AcDbLine
 10
397.240498993647
 20
264.227883704817
 11
412.440498993647
 21
264.227883704817
  0
LINE
  5
103
100
AcDbEntity
  8
1
  6
CONTINUOUS
 62
           2
100
AcDbLine
 10
412.440498993647
 20
264.511112605664
 11
397.240498993647
 21
264.511112605664
  0
LINE
  5
102
100
AcDbEntity
  8
1
  6
CONTINUOUS
 62
           2
100
AcDbLine
 10
397.240498993647
 20
264.904610688212
 11
412.440498993647
 21
264.904610688212
  0
LINE
  5
101
100
AcDbEntity
  8
1
  6
CONTINUOUS
 62
           2
100
AcDbLine
 10
412.440498993647
 20
265.405383194451
 11
397.240498993647
 21
265.405383194451
  0
LINE
  5
100
100
AcDbEntity
  8
1
  6
CONTINUOUS
 62
           2
100
AcDbLine
 10
397.240498993647
 20
266.009618943234
 11
412.440498993647
 21
266.009618943234
  0
LINE
  5
FF
100
AcDbEntity
  8
1
  6
CONTINUOUS
 62
           2
100
AcDbLine
 10
412.440498993647
 20
266.712719335665
 11
397.240498993647
 21
266.712719335665
  0
LINE
  5
FE
100
AcDbEntity
  8
1
  6
CONTINUOUS
 62
           2
100
AcDbLine
 10
397.240498993647
 20
267.509333353216
 11
412.440498993647
 21
267.509333353216
  0
LINE
  5
FD
100
AcDbEntity
  8
1
  6
CONTINUOUS
 62
           2
100
AcDbLine
 10
412.440498993647
 20
268.393398282202
 11
397.240498993647
 21
268.393398282202
  0
LINE
  5
FC
100
AcDbEntity
  8
1
  6
CONTINUOUS
 62
           2
100
AcDbLine
 10
397.240498993647
 20
269.358185854702
 11
412.440498993647
 21
269.358185854702
  0
LINE
  5
FB
100
AcDbEntity
  8
1
  6
CONTINUOUS
 62
           2
100
AcDbLine
 10
397.240498993647
 20
270.396353454735
 11
412.440498993647
 21
270.396353454735
  0
LINE
  5
FA
100
AcDbEntity
  8
1
  6
CONTINUOUS
 62
           2
100
AcDbLine
 10
412.440498993647
 20
271.5
 11
397.240498993647
 21
271.5
  0
LINE
  5
F9
100
AcDbEntity
  8
1
  6
CONTINUOUS
 62
           2
100
AcDbLine
 10
397.240498993647
 20
272.66072607389
 11
412.440498993647
 21
272.66072607389
  0
LINE
  5
F8
100
AcDbEntity
  8
1
  6
CONTINUOUS
 62
           2
100
AcDbLine
 10
412.440498993647
 20
273.869697850115
 11
397.240498993647
 21
273.869697850115
  0
LINE
  5
F7
100
AcDbEntity
  8
1
  6
CONTINUOUS
 62
           2
100
AcDbLine
 10
397.240498993647
 20
275.117714323463
 11
412.440498993647
 21
275.117714323463
  0
LINE
  5
F6
100
AcDbEntity
  8
1
  6
CONTINUOUS
 62
           2
100
AcDbLine
 10
397.240498993647
 20
276.395277334996
 11
412.440498993647
 21
276.395277334996
  0
LINE
  5
F5
100
AcDbEntity
  8
1
  6
CONTINUOUS
 62
           2
100
AcDbLine
 10
397.240498993647
 20
277.692663858785
 11
412.440498993647
 21
277.692663858785
  0
LINE
  5
F4
100
AcDbEntity
  8
1
  6
CONTINUOUS
 62
           7
100
AcDbLine
 10
412.440498993647
 20
294.0
 11
412.440498993647
 21
264.0
  0
LINE
  5
F3
100
AcDbEntity
  8
1
  6
CONTINUOUS
 62
           7
100
AcDbLine
 10
397.240498993647
 20
294.0
 11
397.240498993647
 21
264.0
  0
LINE
  5
F2
100
AcDbEntity
  8
1
  6
CONTINUOUS
 62
           7
100
AcDbLine
 10
397.240498993647
 20
264.0
 11
396.240498993647
 21
265.0
  0
LINE
  5
F1
100
AcDbEntity
  8
1
  6
CONTINUOUS
 62
           7
100
AcDbLine
 10
413.440498993647
 20
265.0
 11
412.440498993647
 21
264.0
  0
LINE
  5
F0
100
AcDbEntity
  8
1
  6
CONTINUOUS
 62
           7
100
AcDbLine
 10
396.240498993647
 20
293.0
 11
396.240498993647
 21
265.0
  0
LINE
  5
EF
100
AcDbEntity
  8
1
  6
CONTINUOUS
 62
           7
100
AcDbLine
 10
412.440498993647
 20
264.0
 11
397.240498993647
 21
264.0
  0
LINE
  5
EE
100
AcDbEntity
  8
1
  6
CONTINUOUS
 62
           7
100
AcDbLine
 10
413.440498993647
 20
293.0
 11
413.440498993647
 21
265.0
  0
LINE
  5
ED
100
AcDbEntity
  8
1
  6
CONTINUOUS
 62
           7
100
AcDbLine
 10
394.499999999997
 20
267.0
 11
396.240498993647
 21
267.0
  0
LINE
  5
EC
100
AcDbEntity
  8
1
  6
CONTINUOUS
 62
           7
100
AcDbLine
 10
389.499999999997
 20
296.25
 11
389.499999999997
 21
261.75
  0
LINE
  5
EB
100
AcDbEntity
  8
1
  6
CONTINUOUS
 62
           7
100
AcDbLine
 10
389.499999999997
 20
264.65
 11
389.499999999997
 21
261.75
  0
LINE
  5
EA
100
AcDbEntity
  8
1
  6
CONTINUOUS
 62
           7
100
AcDbLine
 10
315.849999999998
 20
255.6
 11
315.849999999998
 21
253.17735026919
  0
LINE
  5
E9
100
AcDbEntity
  8
1
  6
CONTINUOUS
 62
           7
100
AcDbLine
 10
305.349999999998
 20
253.17735026919
 11
305.349999999998
 21
255.6
  0
LINE
  5
E8
100
AcDbEntity
  8
1
  6
CONTINUOUS
 62
           7
100
AcDbLine
 10
305.349999999998
 20
245.1
 11
315.849999999998
 21
245.1
  0
LINE
  5
E7
100
AcDbEntity
  8
1
  6
CONTINUOUS
 62
           2
100
AcDbLine
 10
316.199999999997
 20
252.417416061512
 11
316.199999999997
 21
245.45
  0
LINE
  5
E6
100
AcDbEntity
  8
1
  6
CONTINUOUS
 62
           7
100
AcDbLine
 10
317.099999999998
 20
251.878312163513
 11
316.349999999998
 21
252.311324865405
  0
LINE
  5
E5
100
AcDbEntity
  8
1
  6
CONTINUOUS
 62
           7
100
AcDbLine
 10
317.099999999997
 20
246.35
 11
315.849999999998
 21
245.1
  0
LINE
  5
E4
100
AcDbEntity
  8
1
  6
CONTINUOUS
 62
           7
100
AcDbLine
 10
317.099999999997
 20
246.35
 11
317.099999999998
 21
251.878312163513
  0
LINE
  5
E3
100
AcDbEntity
  8
1
  6
CONTINUOUS
 62
           7
100
AcDbLine
 10
317.699999999997
 20
256.946410161514
 11
317.099999999998
 21
256.6
  0
LINE
  5
E2
100
AcDbEntity
  8
1
  6
CONTINUOUS
 62
           7
100
AcDbLine
 10
317.099999999998
 20
256.6
 11
316.849999999997
 21
256.600000000001
  0
LINE
  5
E1
100
AcDbEntity
  8
1
  6
CONTINUOUS
 62
           7
100
AcDbLine
 10
304.349999999998
 20
256.6
 11
304.099999999998
 21
256.6
  0
LINE
  5
E0
100
AcDbEntity
  8
1
  6
CONTINUOUS
 62
           7
100
AcDbLine
 10
304.099999999998
 20
256.6
 11
303.499999999997
 21
256.946410161514
  0
LINE
  5
DF
100
AcDbEntity
  8
1
  6
CONTINUOUS
 62
           7
100
AcDbLine
 10
304.099999999997
 20
251.878312163513
 11
304.099999999997
 21
246.35
  0
LINE
  5
DE
100
AcDbEntity
  8
1
  6
CONTINUOUS
 62
           7
100
AcDbLine
 10
305.349999999998
 20
245.1
 11
304.099999999997
 21
246.35
  0
LINE
  5
DD
100
AcDbEntity
  8
1
  6
CONTINUOUS
 62
           7
100
AcDbLine
 10
304.849999999998
 20
252.311324865405
 11
304.099999999997
 21
251.878312163513
  0
LINE
  5
DC
100
AcDbEntity
  8
1
  6
CONTINUOUS
 62
           2
100
AcDbLine
 10
304.999999999997
 20
245.450000000001
 11
304.999999999997
 21
252.417416061511
  0
LINE
  5
DB
100
AcDbEntity
  8
1
  6
CONTINUOUS
 62
           7
100
AcDbLine
 10
317.699999999997
 20
261.100000000001
 11
316.499999999997
 21
261.1
  0
LINE
  5
DA
100
AcDbEntity
  8
1
  6
CONTINUOUS
 62
           7
100
AcDbLine
 10
317.699999999997
 20
261.100000000001
 11
317.699999999997
 21
256.946410161514
  0
LINE
  5
D9
100
AcDbEntity
  8
1
  6
CONTINUOUS
 62
           7
100
AcDbLine
 10
303.499999999997
 20
256.946410161514
 11
303.499999999997
 21
261.1
  0
LINE
  5
D8
100
AcDbEntity
  8
1
  6
CONTINUOUS
 62
           7
100
AcDbLine
 10
304.699999999997
 20
261.1
 11
303.499999999997
 21
261.1
  0
LINE
  5
D7
100
AcDbEntity
  8
1
  6
CONTINUOUS
 62
           7
100
AcDbLine
 10
269.154700538376
 20
283.330127018922
 11
271.577350269187
 21
283.330127018922
  0
LINE
  5
D6
100
AcDbEntity
  8
1
  6
CONTINUOUS
 62
           7
100
AcDbLine
 10
271.577350269187
 20
283.330127018922
 11
271.577350269187
 21
281.598076211353
  0
LINE
  5
D5
100
AcDbEntity
  8
1
  6
CONTINUOUS
 62
           7
100
AcDbLine
 10
271.577350269187
 20
281.598076211353
 11
269.154700538376
 21
281.598076211353
  0
LINE
  5
D4
100
AcDbEntity
  8
1
  6
CONTINUOUS
 62
           7
100
AcDbLine
 10
269.154700538376
 20
281.598076211353
 11
269.154700538376
 21
283.330127018922
  0
LINE
  5
D3
100
AcDbEntity
  8
1
  6
CONTINUOUS
 62
           7
100
AcDbLine
 10
269.154700538376
 20
276.401923788647
 11
271.577350269187
 21
276.401923788647
  0
LINE
  5
D2
100
AcDbEntity
  8
1
  6
CONTINUOUS
 62
           7
100
AcDbLine
 10
271.577350269187
 20
276.401923788647
 11
271.577350269187
 21
274.669872981078
  0
LINE
  5
D1
100
AcDbEntity
  8
1
  6
CONTINUOUS
 62
           7
100
AcDbLine
 10
271.577350269187
 20
274.669872981078
 11
269.154700538376
 21
274.669872981078
  0
LINE
  5
D0
100
AcDbEntity
  8
1
  6
CONTINUOUS
 62
           7
100
AcDbLine
 10
269.154700538376
 20
274.669872981078
 11
269.154700538376
 21
276.401923788647
  0
LINE
  5
CF
100
AcDbEntity
  8
1
  6
DOT_CENTER
 62
           2
100
AcDbLine
 10
339.999999999999
 20
279.0
 11
420.940498993646
 21
279.0
  0
LINE
  5
CE
100
AcDbEntity
  8
1
  6
DOT_CENTER
 62
           2
100
AcDbLine
 10
473.999999999999
 20
243.237165016611
 11
473.999999999999
 21
220.858221053469
  0
LINE
  5
CD
100
AcDbEntity
  8
1
  6
DOT_CENTER
 62
           2
100
AcDbLine
 10
492.000000000001
 20
243.237165016611
 11
492.000000000001
 21
220.858221053469
  0
LINE
  5
CC
100
AcDbEntity
  8
1
  6
CONTINUOUS
 62
           2
100
AcDbLine
 10
496.000000000001
 20
233.630703031707
 11
488.000000000001
 21
233.630703031707
  0
LINE
  5
CB
100
AcDbEntity
  8
1
  6
CONTINUOUS
 62
           2
100
AcDbLine
 10
495.500000000001
 20
238.500000000001
 11
495.500000000001
 21
233.630703031707
  0
LINE
  5
CA
100
AcDbEntity
  8
1
  6
CONTINUOUS
 62
           2
100
AcDbLine
 10
488.500000000002
 20
238.500000000001
 11
488.500000000002
 21
233.630703031708
  0
LINE
  5
C9
100
AcDbEntity
  8
1
  6
CONTINUOUS
 62
           7
100
AcDbLine
 10
496.000000000001
 20
238.500000000001
 11
496.000000000001
 21
231.130703031707
  0
LINE
  5
C8
100
AcDbEntity
  8
1
  6
CONTINUOUS
 62
           7
100
AcDbLine
 10
488.000000000001
 20
238.500000000001
 11
488.000000000001
 21
231.130703031707
  0
LINE
  5
C7
100
AcDbEntity
  8
1
  6
CONTINUOUS
 62
           7
100
AcDbLine
 10
486.750000000001
 20
230.40901519522
 11
488.000000000001
 21
231.130703031707
  0
LINE
  5
C6
100
AcDbEntity
  8
1
  6
CONTINUOUS
 62
           7
100
AcDbLine
 10
486.750000000001
 20
223.852390868194
 11
486.750000000001
 21
230.40901519522
  0
LINE
  5
C5
100
AcDbEntity
  8
1
  6
CONTINUOUS
 62
           7
100
AcDbLine
 10
488.000000000001
 20
223.130703031707
 11
486.750000000001
 21
223.852390868194
  0
LINE
  5
C4
100
AcDbEntity
  8
1
  6
CONTINUOUS
 62
           2
100
AcDbLine
 10
492.424004117038
 20
223.852390868194
 11
492.424004117038
 21
230.40901519522
  0
LINE
  5
C3
100
AcDbEntity
  8
1
  6
CONTINUOUS
 62
           2
100
AcDbLine
 10
491.575995882964
 20
230.40901519522
 11
491.575995882964
 21
223.852390868194
  0
LINE
  5
C2
100
AcDbEntity
  8
1
  6
CONTINUOUS
 62
           2
100
AcDbLine
 10
492.424004117038
 20
230.40901519522
 11
491.575995882964
 21
230.40901519522
  0
LINE
  5
C1
100
AcDbEntity
  8
1
  6
CONTINUOUS
 62
           2
100
AcDbLine
 10
492.424004117038
 20
223.852390868194
 11
491.575995882964
 21
223.852390868194
  0
LINE
  5
C0
100
AcDbEntity
  8
1
  6
CONTINUOUS
 62
           7
100
AcDbLine
 10
497.250000000001
 20
230.40901519522
 11
497.250000000001
 21
223.852390868194
  0
LINE
  5
BF
100
AcDbEntity
  8
1
  6
CONTINUOUS
 62
           7
100
AcDbLine
 10
497.250000000001
 20
223.852390868194
 11
496.000000000001
 21
223.130703031707
  0
LINE
  5
BE
100
AcDbEntity
  8
1
  6
CONTINUOUS
 62
           7
100
AcDbLine
 10
488.000000000001
 20
231.130703031707
 11
496.000000000001
 21
231.130703031707
  0
LINE
  5
BD
100
AcDbEntity
  8
1
  6
CONTINUOUS
 62
           7
100
AcDbLine
 10
496.000000000001
 20
231.130703031707
 11
497.250000000001
 21
230.40901519522
  0
LINE
  5
BC
100
AcDbEntity
  8
1
  6
CONTINUOUS
 62
           2
100
AcDbLine
 10
488.000000000001
 20
231.130703031707
 11
488.500000000002
 21
233.630703031708
  0
LINE
  5
BB
100
AcDbEntity
  8
1
  6
CONTINUOUS
 62
           2
100
AcDbLine
 10
496.000000000001
 20
231.130703031707
 11
495.500000000001
 21
233.630703031707
  0
LINE
  5
BA
100
AcDbEntity
  8
1
  6
CONTINUOUS
 62
           7
100
AcDbLine
 10
496.000000000001
 20
223.130703031707
 11
488.000000000001
 21
223.130703031707
  0
LINE
  5
B9
100
AcDbEntity
  8
1
  6
CONTINUOUS
 62
           7
100
AcDbLine
 10
477.999999999999
 20
223.130703031707
 11
469.999999999999
 21
223.130703031707
  0
LINE
  5
B8
100
AcDbEntity
  8
1
  6
CONTINUOUS
 62
           2
100
AcDbLine
 10
477.999999999999
 20
231.130703031707
 11
477.499999999999
 21
233.630703031707
  0
LINE
  5
B7
100
AcDbEntity
  8
1
  6
CONTINUOUS
 62
           2
100
AcDbLine
 10
469.999999999999
 20
231.130703031707
 11
470.499999999999
 21
233.630703031708
  0
LINE
  5
B6
100
AcDbEntity
  8
1
  6
CONTINUOUS
 62
           7
100
AcDbLine
 10
477.999999999999
 20
231.130703031707
 11
479.249999999999
 21
230.40901519522
  0
LINE
  5
B5
100
AcDbEntity
  8
1
  6
CONTINUOUS
 62
           7
100
AcDbLine
 10
469.999999999999
 20
231.130703031707
 11
477.999999999999
 21
231.130703031707
  0
LINE
  5
B4
100
AcDbEntity
  8
1
  6
CONTINUOUS
 62
           7
100
AcDbLine
 10
479.249999999999
 20
223.852390868194
 11
477.999999999999
 21
223.130703031707
  0
LINE
  5
B3
100
AcDbEntity
  8
1
  6
CONTINUOUS
 62
           7
100
AcDbLine
 10
479.249999999999
 20
230.40901519522
 11
479.249999999999
 21
223.852390868194
  0
LINE
  5
B2
100
AcDbEntity
  8
1
  6
CONTINUOUS
 62
           2
100
AcDbLine
 10
474.424004117036
 20
223.852390868194
 11
473.575995882962
 21
223.852390868194
  0
LINE
  5
B1
100
AcDbEntity
  8
1
  6
CONTINUOUS
 62
           2
100
AcDbLine
 10
474.424004117036
 20
230.40901519522
 11
473.575995882962
 21
230.40901519522
  0
LINE
  5
B0
100
AcDbEntity
  8
1
  6
CONTINUOUS
 62
           2
100
AcDbLine
 10
473.575995882962
 20
230.40901519522
 11
473.575995882962
 21
223.852390868194
  0
LINE
  5
AF
100
AcDbEntity
  8
1
  6
CONTINUOUS
 62
           2
100
AcDbLine
 10
474.424004117036
 20
223.852390868194
 11
474.424004117036
 21
230.40901519522
  0
LINE
  5
AE
100
AcDbEntity
  8
1
  6
CONTINUOUS
 62
           7
100
AcDbLine
 10
469.999999999999
 20
223.130703031707
 11
468.749999999999
 21
223.852390868194
  0
LINE
  5
AD
100
AcDbEntity
  8
1
  6
CONTINUOUS
 62
           7
100
AcDbLine
 10
468.749999999999
 20
223.852390868194
 11
468.749999999999
 21
230.40901519522
  0
LINE
  5
AC
100
AcDbEntity
  8
1
  6
CONTINUOUS
 62
           7
100
AcDbLine
 10
468.749999999999
 20
230.40901519522
 11
469.999999999999
 21
231.130703031707
  0
LINE
  5
AB
100
AcDbEntity
  8
1
  6
CONTINUOUS
 62
           7
100
AcDbLine
 10
469.999999999999
 20
238.500000000001
 11
469.999999999999
 21
231.130703031707
  0
LINE
  5
AA
100
AcDbEntity
  8
1
  6
CONTINUOUS
 62
           7
100
AcDbLine
 10
477.999999999999
 20
238.500000000001
 11
477.999999999999
 21
231.130703031707
  0
LINE
  5
A9
100
AcDbEntity
  8
1
  6
CONTINUOUS
 62
           2
100
AcDbLine
 10
470.499999999999
 20
238.500000000001
 11
470.499999999999
 21
233.630703031708
  0
LINE
  5
A8
100
AcDbEntity
  8
1
  6
CONTINUOUS
 62
           2
100
AcDbLine
 10
477.499999999999
 20
238.500000000001
 11
477.499999999999
 21
233.630703031707
  0
LINE
  5
A7
100
AcDbEntity
  8
1
  6
CONTINUOUS
 62
           2
100
AcDbLine
 10
477.999999999999
 20
233.630703031707
 11
469.999999999999
 21
233.630703031707
  0
LINE
  5
A6
100
AcDbEntity
  8
1
  6
DOT_CENTER
 62
           2
100
AcDbLine
 10
461.837732706837
 20
279.000000000001
 11
507.2009280665
 21
279.000000000001
  0
LINE
  5
A5
100
AcDbEntity
  8
1
  6
CONTINUOUS
 62
           7
100
AcDbLine
 10
465.006756756756
 20
267.000000000001
 11
464.8
 21
267.000000000001
  0
LINE
  5
A4
100
AcDbEntity
  8
1
  6
CONTINUOUS
 62
           7
100
AcDbLine
 10
501.199999999999
 20
267.000000000001
 11
500.993243243242
 21
267.000000000001
  0
LINE
  5
A3
100
AcDbEntity
  8
1
  6
CONTINUOUS
 62
           7
100
AcDbLine
 10
501.999999999999
 20
244.5
 11
501.999999999999
 21
266.2
  0
LINE
  5
A2
100
AcDbEntity
  8
1
  6
CONTINUOUS
 62
           7
100
AcDbLine
 10
501.468978395389
 20
243.530399160786
 11
500.522986135158
 21
290.199350665484
  0
LINE
  5
A1
100
AcDbEntity
  8
1
  6
CONTINUOUS
 62
           7
100
AcDbLine
 10
464.0
 20
266.2
 11
463.999999999999
 21
244.5
  0
LINE
  5
A0
100
AcDbEntity
  8
1
  6
CONTINUOUS
 62
           7
100
AcDbLine
 10
464.53102160461
 20
243.530399160786
 11
465.47701386484
 21
290.199350665484
  0
LINE
  5
9F
100
AcDbEntity
  8
1
  6
CONTINUOUS
 62
           7
100
AcDbLine
 10
466.03071353665
 20
242.000000000001
 11
466.5
 21
242.000000000001
  0
LINE
  5
9E
100
AcDbEntity
  8
1
  6
CONTINUOUS
 62
           7
100
AcDbLine
 10
464.499999999999
 20
244.000000000001
 11
464.520833333333
 21
244.000000000001
  0
LINE
  5
9D
100
AcDbEntity
  8
1
  6
CONTINUOUS
 62
           7
100
AcDbLine
 10
466.999999999999
 20
241.500000000001
 11
466.999999999999
 21
239.500000000001
  0
LINE
  5
9C
100
AcDbEntity
  8
1
  6
CONTINUOUS
 62
           7
100
AcDbLine
 10
466.5
 20
242.000000000001
 11
499.969286463349
 21
242.000000000001
  0
LINE
  5
9B
100
AcDbEntity
  8
1
  6
CONTINUOUS
 62
           7
100
AcDbLine
 10
467.999999999999
 20
238.5
 11
498.0
 21
238.5
  0
LINE
  5
9A
100
AcDbEntity
  8
1
  6
CONTINUOUS
 62
           7
100
AcDbLine
 10
499.499999999999
 20
242.000000000001
 11
499.968424514481
 21
242.000000000001
  0
LINE
  5
99
100
AcDbEntity
  8
1
  6
CONTINUOUS
 62
           7
100
AcDbLine
 10
499.0
 20
242.000000000001
 11
499.499999999999
 21
242.000000000001
  0
LINE
  5
98
100
AcDbEntity
  8
1
  6
CONTINUOUS
 62
           7
100
AcDbLine
 10
499.0
 20
239.500000000001
 11
499.0
 21
241.500000000001
  0
LINE
  5
97
100
AcDbEntity
  8
1
  6
CONTINUOUS
 62
           7
100
AcDbLine
 10
484.499999999999
 20
292.919410907075
 11
484.499999999999
 21
291.500000000001
  0
LINE
  5
96
100
AcDbEntity
  8
1
  6
CONTINUOUS
 62
           7
100
AcDbLine
 10
481.499999999999
 20
292.919410907075
 11
481.5
 21
291.500000000001
  0
LINE
  5
95
100
AcDbEntity
  8
1
  6
CONTINUOUS
 62
           7
100
AcDbLine
 10
485.416822141467
 20
296.079855700108
 11
496.583177858531
 21
289.632957220994
  0
LINE
  5
94
100
AcDbEntity
  8
1
  6
CONTINUOUS
 62
           7
100
AcDbLine
 10
499.0
 20
272.553101520887
 11
499.0
 21
285.446898479115
  0
LINE
  5
93
100
AcDbEntity
  8
1
  6
CONTINUOUS
 62
           7
100
AcDbLine
 10
485.416822141467
 20
261.920144299892
 11
496.583177858531
 21
268.367042779007
  0
LINE
  5
92
100
AcDbEntity
  8
1
  6
CONTINUOUS
 62
           7
100
AcDbLine
 10
469.416822141467
 20
268.367042779007
 11
480.583177858531
 21
261.920144299892
  0
LINE
  5
91
100
AcDbEntity
  8
1
  6
CONTINUOUS
 62
           7
100
AcDbLine
 10
466.999999999999
 20
285.446898479115
 11
466.999999999999
 21
272.553101520887
  0
LINE
  5
90
100
AcDbEntity
  8
1
  6
CONTINUOUS
 62
           7
100
AcDbLine
 10
480.583177858531
 20
296.079855700108
 11
469.416822141467
 21
289.632957220994
  0
LINE
  5
8F
100
AcDbEntity
  8
1
  6
DOT_CENTER
 62
           2
100
AcDbLine
 10
483.0
 20
316.132953751417
 11
483.0
 21
237.392233761183
  0
LINE
  5
8E
100
AcDbEntity
  8
1
  6
DOT_CENTER
 62
           2
100
AcDbLine
 10
475.656594645229
 20
307.273978262778
 11
490.496746722524
 21
307.273978262778
  0
LINE
  5
8D
100
AcDbEntity
  8
1
  6
CONTINUOUS
 62
           2
100
AcDbLine
 10
347.999999999996
 20
233.63070303171
 11
355.999999999996
 21
233.63070303171
  0
LINE
  5
8C
100
AcDbEntity
  8
1
  6
CONTINUOUS
 62
           2
100
AcDbLine
 10
321.664447865867
 20
296.486688509474
 11
319.945250931706
 21
298.648493709235
  0
LINE
  5
8B
100
AcDbEntity
  8
1
  6
CONTINUOUS
 62
           2
100
AcDbLine
 10
323.800281408853
 20
296.084888204257
 11
322.861180183782
 21
299.77486157135
  0
LINE
  5
8A
100
AcDbEntity
  8
1
  6
CONTINUOUS
 62
           2
100
AcDbLine
 10
307.561335368647
 20
297.036692503773
 11
308.9425753437
 21
291.609755220396
  0
LINE
  5
89
100
AcDbEntity
  8
1
  6
CONTINUOUS
 62
           2
100
AcDbLine
 10
307.665384506538
 20
294.600913477766
 11
306.35560679616
 21
296.729882233686
  0
LINE
  5
88
100
AcDbEntity
  8
1
  6
CONTINUOUS
 62
           2
100
AcDbLine
 10
305.480801185295
 20
290.72873087966
 11
306.672958802915
 21
293.9445088704
  0
LINE
  5
87
100
AcDbEntity
  8
1
  6
CONTINUOUS
 62
           2
100
AcDbLine
 10
302.549693127197
 20
289.982761493344
 11
305.480801185295
 21
290.72873087966
  0
LINE
  5
86
100
AcDbEntity
  8
1
  6
CONTINUOUS
 62
           2
100
AcDbLine
 10
304.516972350683
 20
295.134242403598
 11
302.549693127197
 21
289.982761493344
  0
LINE
  5
85
100
AcDbEntity
  8
1
  6
CONTINUOUS
 62
           2
100
AcDbLine
 10
310.029581699122
 20
297.664911836615
 11
307.561335368647
 21
297.036692503773
  0
LINE
  5
84
100
AcDbEntity
  8
1
  6
CONTINUOUS
 62
           2
100
AcDbLine
 10
311.410833298383
 20
292.237928878693
 11
310.029581699122
 21
297.664911836615
  0
LINE
  5
83
100
AcDbEntity
  8
1
  6
CONTINUOUS
 62
           2
100
AcDbLine
 10
308.9425753437
 20
291.609755220396
 11
311.410833298383
 21
292.237928878693
  0
LINE
  5
82
100
AcDbEntity
  8
1
  6
CONTINUOUS
 62
           2
100
AcDbLine
 10
314.372416892861
 20
297.614464405091
 11
313.879178503499
 21
292.866092068839
  0
LINE
  5
81
100
AcDbEntity
  8
1
  6
CONTINUOUS
 62
           2
100
AcDbLine
 10
315.299372267265
 20
296.678296168983
 11
315.03713742669
 21
293.160808379449
  0
LINE
  5
80
100
AcDbEntity
  8
1
  6
CONTINUOUS
 62
           2
100
AcDbLine
 10
313.879178503499
 20
292.866092068839
 11
315.03713742669
 21
293.160808379449
  0
LINE
  5
7F
100
AcDbEntity
  8
1
  6
CONTINUOUS
 62
           2
100
AcDbLine
 10
315.489119357958
 20
297.898666091305
 11
314.372416892861
 21
297.614464405091
  0
LINE
  5
7E
100
AcDbEntity
  8
1
  6
CONTINUOUS
 62
           2
100
AcDbLine
 10
316.350830332812
 20
295.309299469739
 11
315.484357236702
 21
296.723115239397
  0
LINE
  5
7D
100
AcDbEntity
  8
1
  6
CONTINUOUS
 62
           2
100
AcDbLine
 10
315.659555375369
 20
295.133369430465
 11
316.350830332812
 21
295.309299469739
  0
LINE
  5
7C
100
AcDbEntity
  8
1
  6
CONTINUOUS
 62
           2
100
AcDbLine
 10
316.149420593357
 20
294.35263579686
 11
316.869064989726
 21
294.53578588143
  0
LINE
  5
7B
100
AcDbEntity
  8
1
  6
CONTINUOUS
 62
           2
100
AcDbLine
 10
315.659555375369
 20
295.133369430465
 11
316.149420593357
 21
294.35263579686
  0
LINE
  5
7A
100
AcDbEntity
  8
1
  6
CONTINUOUS
 62
           2
100
AcDbLine
 10
317.383063079496
 20
293.75785957532
 11
316.869064989726
 21
294.53578588143
  0
LINE
  5
79
100
AcDbEntity
  8
1
  6
CONTINUOUS
 62
           2
100
AcDbLine
 10
318.619277693665
 20
294.072483106914
 11
317.383063079496
 21
293.75785957532
  0
LINE
  5
78
100
AcDbEntity
  8
1
  6
CONTINUOUS
 62
           2
100
AcDbLine
 10
316.165733679812
 20
297.649247039353
 11
318.619277693665
 21
294.072483106914
  0
LINE
  5
77
100
AcDbEntity
  8
1
  6
CONTINUOUS
 62
           2
100
AcDbLine
 10
319.294508164045
 20
298.867131837862
 11
317.998890117181
 21
298.537404792146
  0
LINE
  5
76
100
AcDbEntity
  8
1
  6
CONTINUOUS
 62
           2
100
AcDbLine
 10
320.175415233796
 20
294.468522114456
 11
319.445693791419
 21
297.335787767918
  0
LINE
  5
75
100
AcDbEntity
  8
1
  6
CONTINUOUS
 62
           2
100
AcDbLine
 10
319.103831275
 20
294.195803124817
 11
320.175415233796
 21
294.468522114456
  0
LINE
  5
74
100
AcDbEntity
  8
1
  6
CONTINUOUS
 62
           2
100
AcDbLine
 10
317.998890117181
 20
298.537404792146
 11
319.103831275
 21
294.195803124817
  0
LINE
  5
73
100
AcDbEntity
  8
1
  6
CONTINUOUS
 62
           2
100
AcDbLine
 10
321.136603289906
 20
299.335955348284
 11
321.839626145183
 21
296.573595399033
  0
LINE
  5
72
100
AcDbEntity
  8
1
  6
CONTINUOUS
 62
           2
100
AcDbLine
 10
322.221010075009
 20
299.611942899823
 11
321.136603289906
 21
299.335955348284
  0
LINE
  5
71
100
AcDbEntity
  8
1
  6
CONTINUOUS
 62
           2
100
AcDbLine
 10
323.325952461906
 20
295.270336403127
 11
322.221010075009
 21
299.611942899823
  0
LINE
  5
70
100
AcDbEntity
  8
1
  6
CONTINUOUS
 62
           2
100
AcDbLine
 10
322.044083673137
 20
294.944099753114
 11
323.325952461906
 21
295.270336403127
  0
LINE
  5
6F
100
AcDbEntity
  8
1
  6
CONTINUOUS
 62
           2
100
AcDbLine
 10
319.621264906341
 20
297.422197460654
 11
321.39044569153
 21
295.168370620667
  0
LINE
  5
6E
100
AcDbEntity
  8
1
  6
CONTINUOUS
 62
           2
100
AcDbLine
 10
322.861180183782
 20
299.77486157135
 11
326.402476560057
 21
300.676124381254
  0
LINE
  5
6D
100
AcDbEntity
  8
1
  6
CONTINUOUS
 62
           2
100
AcDbLine
 10
327.514071075514
 20
296.336215998859
 11
324.620775108783
 21
295.599869820569
  0
LINE
  5
6C
100
AcDbEntity
  8
1
  6
CONTINUOUS
 62
           2
100
AcDbLine
 10
327.302446075625
 20
297.167745755774
 11
327.514071075514
 21
296.336215998859
  0
LINE
  5
6B
100
AcDbEntity
  8
1
  6
CONTINUOUS
 62
           2
100
AcDbLine
 10
324.935916601677
 20
296.565450802968
 11
327.302446075625
 21
297.167745755774
  0
LINE
  5
6A
100
AcDbEntity
  8
1
  6
CONTINUOUS
 62
           2
100
AcDbLine
 10
324.250893039217
 20
299.25708684159
 11
324.935916601677
 21
296.565450802968
  0
LINE
  5
69
100
AcDbEntity
  8
1
  6
CONTINUOUS
 62
           2
100
AcDbLine
 10
326.610771850624
 20
299.857677919719
 11
324.250893039217
 21
299.25708684159
  0
LINE
  5
68
100
AcDbEntity
  8
1
  6
CONTINUOUS
 62
           2
100
AcDbLine
 10
326.402476560057
 20
300.676124381254
 11
326.610771850624
 21
299.857677919719
  0
LINE
  5
67
100
AcDbEntity
  8
1
  6
CONTINUOUS
 62
           2
100
AcDbLine
 10
326.674444528989
 20
298.908824993418
 11
324.966114274621
 21
298.474053553329
  0
LINE
  5
66
100
AcDbEntity
  8
1
  6
CONTINUOUS
 62
           2
100
AcDbLine
 10
326.887774073111
 20
298.077193790068
 11
326.674444528989
 21
298.908824993418
  0
LINE
  5
65
100
AcDbEntity
  8
1
  6
CONTINUOUS
 62
           2
100
AcDbLine
 10
325.43858596048
 20
297.708374235958
 11
326.887774073111
 21
298.077193790068
  0
LINE
  5
64
100
AcDbEntity
  8
1
  6
CONTINUOUS
 62
           2
100
AcDbLine
 10
324.966114274621
 20
298.474053553329
 11
325.43858596048
 21
297.708374235958
  0
LINE
  5
63
100
AcDbEntity
  8
1
  6
CONTINUOUS
 62
           2
100
AcDbLine
 10
328.057310023831
 20
296.47447075333
 11
327.844516420571
 21
297.310592257332
  0
LINE
  5
62
100
AcDbEntity
  8
1
  6
CONTINUOUS
 62
           2
100
AcDbLine
 10
327.844516420571
 20
297.310592257332
 11
329.640895454488
 21
297.767772183478
  0
LINE
  5
61
100
AcDbEntity
  8
1
  6
CONTINUOUS
 62
           2
100
AcDbLine
 10
329.792585478588
 20
296.916099768848
 11
328.057310023831
 21
296.47447075333
  0
LINE
  5
60
100
AcDbEntity
  8
1
  6
CONTINUOUS
 62
           2
100
AcDbLine
 10
330.164895176712
 20
300.756130504655
 11
328.83227021603
 21
300.416976367583
  0
LINE
  5
5F
100
AcDbEntity
  8
1
  6
CONTINUOUS
 62
           2
100
AcDbLine
 10
329.953569318497
 20
301.579879761695
 11
330.164895176712
 21
300.756130504655
  0
LINE
  5
5E
100
AcDbEntity
  8
1
  6
CONTINUOUS
 62
           2
100
AcDbLine
 10
328.52435854614
 20
301.216137628066
 11
329.953569318497
 21
301.579879761695
  0
LINE
  5
5D
100
AcDbEntity
  8
1
  6
CONTINUOUS
 62
           2
100
AcDbLine
 10
330.693212520811
 20
300.904430172648
 11
331.89928707677
 21
301.211377128723
  0
LINE
  5
5C
100
AcDbEntity
  8
1
  6
CONTINUOUS
 62
           2
100
AcDbLine
 10
330.485196486671
 20
301.715179925367
 11
330.693212520811
 21
300.904430172648
  0
LINE
  5
5B
100
AcDbEntity
  8
1
  6
CONTINUOUS
 62
           2
100
AcDbLine
 10
333.098669564121
 20
301.516620947891
 11
334.015320077655
 21
301.749909249616
  0
LINE
  5
5A
100
AcDbEntity
  8
1
  6
CONTINUOUS
 62
           2
100
AcDbLine
 10
334.297338798757
 20
302.685391461075
 11
330.485196486671
 21
301.715179925367
  0
LINE
  5
59
100
AcDbEntity
  8
1
  6
CONTINUOUS
 62
           2
100
AcDbLine
 10
334.379587380546
 20
302.365001253129
 11
334.297338798757
 21
302.685391461075
  0
LINE
  5
58
100
AcDbEntity
  8
1
  6
CONTINUOUS
 62
           2
100
AcDbLine
 10
333.997172081213
 20
297.986170481188
 11
333.098669564121
 21
301.516620947891
  0
LINE
  5
57
100
AcDbEntity
  8
1
  6
CONTINUOUS
 62
           2
100
AcDbLine
 10
332.797789593861
 20
297.680926662019
 11
333.997172081213
 21
297.986170481188
  0
LINE
  5
56
100
AcDbEntity
  8
1
  6
CONTINUOUS
 62
           2
100
AcDbLine
 10
331.89928707677
 20
301.211377128723
 11
332.797789593861
 21
297.680926662019
  0
LINE
  5
55
100
AcDbEntity
  8
1
  6
CONTINUOUS
 62
           2
100
AcDbLine
 10
337.3083172865
 20
298.828853931075
 11
338.509542583125
 21
299.134572446391
  0
LINE
  5
54
100
AcDbEntity
  8
1
  6
CONTINUOUS
 62
           2
100
AcDbLine
 10
336.896102754528
 20
303.346760788158
 11
336.203374766344
 21
303.170460951377
  0
LINE
  5
53
100
AcDbEntity
  8
1
  6
CONTINUOUS
 62
           2
100
AcDbLine
 10
338.509542583125
 20
299.134572446391
 11
337.532656352179
 21
302.973012945283
  0
LINE
  5
52
100
AcDbEntity
  8
1
  6
CONTINUOUS
 62
           2
100
AcDbLine
 10
336.203374766344
 20
303.170460951377
 11
337.3083172865
 21
298.828853931075
  0
LINE
  5
51
100
AcDbEntity
  8
1
  6
CONTINUOUS
 62
           2
100
AcDbLine
 10
340.581540639061
 20
304.284707729225
 11
341.545846869138
 21
304.530124449596
  0
LINE
  5
50
100
AcDbEntity
  8
1
  6
CONTINUOUS
 62
           2
100
AcDbLine
 10
340.763556176421
 20
301.482316417754
 11
340.581540639061
 21
304.284707729225
  0
LINE
  5
4F
100
AcDbEntity
  8
1
  6
CONTINUOUS
 62
           2
100
AcDbLine
 10
337.889155182822
 20
303.59949343937
 11
338.678405755478
 21
303.800358352456
  0
LINE
  5
4E
100
AcDbEntity
  8
1
  6
CONTINUOUS
 62
           2
100
AcDbLine
 10
339.283161452147
 20
303.551749107102
 11
340.578345446402
 21
301.423842236435
  0
LINE
  5
4D
100
AcDbEntity
  8
1
  6
CONTINUOUS
 62
           2
100
AcDbLine
 10
340.448509454993
 20
299.628041093342
 11
337.889155182822
 21
303.59949343937
  0
LINE
  5
4C
100
AcDbEntity
  8
1
  6
CONTINUOUS
 62
           2
100
AcDbLine
 10
341.297895535834
 20
299.844214600254
 11
340.448509454993
 21
299.628041093342
  0
LINE
  5
4B
100
AcDbEntity
  8
1
  6
CONTINUOUS
 62
           2
100
AcDbLine
 10
341.647964036157
 20
302.873146583516
 11
341.771423385301
 21
300.489104453935
  0
LINE
  5
4A
100
AcDbEntity
  8
1
  6
CONTINUOUS
 62
           2
100
AcDbLine
 10
344.498673222242
 20
301.098679501937
 11
344.726002270156
 21
304.170719687382
  0
LINE
  5
49
100
AcDbEntity
  8
1
  6
CONTINUOUS
 62
           2
100
AcDbLine
 10
348.037402461924
 20
301.55942053995
 11
345.580692853191
 21
305.146491778725
  0
LINE
  5
48
100
AcDbEntity
  8
1
  6
CONTINUOUS
 62
           2
100
AcDbLine
 10
344.944776386414
 20
305.395154778018
 11
343.812423047765
 21
305.106969931747
  0
LINE
  5
47
100
AcDbEntity
  8
1
  6
CONTINUOUS
 62
           2
100
AcDbLine
 10
343.053464161935
 20
300.291016683598
 11
344.024538301585
 21
300.538160481895
  0
LINE
  5
46
100
AcDbEntity
  8
1
  6
CONTINUOUS
 62
           2
100
AcDbLine
 10
341.838608311588
 20
302.920262684299
 11
343.053464161935
 21
300.291016683598
  0
LINE
  5
45
100
AcDbEntity
  8
1
  6
CONTINUOUS
 62
           2
100
AcDbLine
 10
346.295474019428
 20
302.015678434286
 11
346.809050529818
 21
301.246803973515
  0
LINE
  5
44
100
AcDbEntity
  8
1
  6
CONTINUOUS
 62
           2
100
AcDbLine
 10
345.569605117515
 20
301.830944207989
 11
346.295474019428
 21
302.015678434286
  0
LINE
  5
43
100
AcDbEntity
  8
1
  6
CONTINUOUS
 62
           2
100
AcDbLine
 10
345.086052772074
 20
302.611548333043
 11
345.569605117515
 21
301.830944207989
  0
LINE
  5
42
100
AcDbEntity
  8
1
  6
CONTINUOUS
 62
           2
100
AcDbLine
 10
345.789498224039
 20
302.790575773078
 11
345.086052772074
 21
302.611548333043
  0
LINE
  5
41
100
AcDbEntity
  8
1
  6
CONTINUOUS
 62
           2
100
AcDbLine
 10
344.910853471105
 20
304.215817785839
 11
345.789498224039
 21
302.790575773078
  0
LINE
  5
40
100
AcDbEntity
  8
1
  6
CONTINUOUS
 62
           2
100
AcDbLine
 10
343.287178251967
 20
302.092636678223
 11
342.299294618862
 21
304.173440066631
  0
LINE
  5
3F
100
AcDbEntity
  8
1
  6
CONTINUOUS
 62
           2
100
AcDbLine
 10
343.812423047765
 20
305.106969931747
 11
343.476887547021
 21
302.124345562726
  0
LINE
  5
3E
100
AcDbEntity
  8
1
  6
CONTINUOUS
 62
           2
100
AcDbLine
 10
351.739892762487
 20
302.501707334777
 11
351.994106327892
 21
306.055636807093
  0
LINE
  5
3D
100
AcDbEntity
  8
1
  6
CONTINUOUS
 62
           2
100
AcDbLine
 10
346.809050529818
 20
301.246803973515
 11
348.037402461924
 21
301.55942053995
  0
LINE
  5
3C
100
AcDbEntity
  8
1
  6
CONTINUOUS
 62
           2
100
AcDbLine
 10
350.329145194621
 20
306.420870215708
 11
350.24613642703
 21
306.744355222954
  0
LINE
  5
3B
100
AcDbEntity
  8
1
  6
CONTINUOUS
 62
           2
100
AcDbLine
 10
348.954992855377
 20
305.556546332017
 11
349.973848546037
 21
305.815845934503
  0
LINE
  5
3A
100
AcDbEntity
  8
1
  6
CONTINUOUS
 62
           2
100
AcDbLine
 10
349.854565749389
 20
302.021890075539
 11
348.954992855377
 21
305.556546332017
  0
LINE
  5
39
100
AcDbEntity
  8
1
  6
CONTINUOUS
 62
           2
100
AcDbLine
 10
348.673371082337
 20
301.721269460037
 11
349.854565749389
 21
302.021890075539
  0
LINE
  5
38
100
AcDbEntity
  8
1
  6
CONTINUOUS
 62
           2
100
AcDbLine
 10
347.773796847091
 20
305.255930986572
 11
348.673371082337
 21
301.721269460037
  0
LINE
  5
37
100
AcDbEntity
  8
1
  6
CONTINUOUS
 62
           2
100
AcDbLine
 10
346.444717675174
 20
304.917679255626
 11
347.773796847091
 21
305.255930986572
  0
LINE
  5
36
100
AcDbEntity
  8
1
  6
CONTINUOUS
 62
           2
100
AcDbLine
 10
346.237777938475
 20
305.724224725348
 11
346.444717675174
 21
304.917679255626
  0
LINE
  5
35
100
AcDbEntity
  8
1
  6
CONTINUOUS
 62
           2
100
AcDbLine
 10
350.24613642703
 20
306.744355222954
 11
346.237777938475
 21
305.724224725348
  0
LINE
  5
34
100
AcDbEntity
  8
1
  6
CONTINUOUS
 62
           2
100
AcDbLine
 10
350.581255310244
 20
302.206833160205
 11
351.739892762487
 21
302.501707334777
  0
LINE
  5
33
100
AcDbEntity
  8
1
  6
CONTINUOUS
 62
           2
100
AcDbLine
 10
351.072745687448
 20
306.95472795248
 11
350.581255310244
 21
302.206833160205
  0
LINE
  5
32
100
AcDbEntity
  8
1
  6
CONTINUOUS
 62
           2
100
AcDbLine
 10
352.170085485256
 20
307.23400182411
 11
351.072745687448
 21
306.95472795248
  0
LINE
  5
31
100
AcDbEntity
  8
1
  6
CONTINUOUS
 62
           2
100
AcDbLine
 10
355.290881334345
 20
303.405436816345
 11
352.849672939383
 21
306.975492891051
  0
LINE
  5
30
100
AcDbEntity
  8
1
  6
CONTINUOUS
 62
           2
100
AcDbLine
 10
354.058399570178
 20
303.091769204289
 11
355.290881334345
 21
303.405436816345
  0
LINE
  5
2F
100
AcDbEntity
  8
1
  6
CONTINUOUS
 62
           2
100
AcDbLine
 10
353.564463104932
 20
303.874815916481
 11
354.058399570178
 21
303.091769204289
  0
LINE
  5
2E
100
AcDbEntity
  8
1
  6
CONTINUOUS
 62
           2
100
AcDbLine
 10
352.837065296475
 20
303.689692582223
 11
353.564463104932
 21
303.874815916481
  0
LINE
  5
2D
100
AcDbEntity
  8
1
  6
CONTINUOUS
 62
           2
100
AcDbLine
 10
352.357586292549
 20
304.486333160099
 11
352.837065296475
 21
303.689692582223
  0
LINE
  5
2C
100
AcDbEntity
  8
1
  6
CONTINUOUS
 62
           2
100
AcDbLine
 10
353.047346703301
 20
304.661877746009
 11
352.357586292549
 21
304.486333160099
  0
LINE
  5
2B
100
AcDbEntity
  8
1
  6
CONTINUOUS
 62
           2
100
AcDbLine
 10
352.179471759774
 20
306.100165991225
 11
353.047346703301
 21
304.661877746009
  0
LINE
  5
2A
100
AcDbEntity
  8
1
  6
CONTINUOUS
 62
           2
100
AcDbLine
 10
306.35560679616
 20
296.729882233686
 11
305.961754072871
 21
296.629646395066
  0
LINE
  5
29
100
AcDbEntity
  8
1
  6
CONTINUOUS
 62
           2
100
AcDbLine
 10
307.168200364976
 20
294.474369687853
 11
307.665384506538
 21
294.600913477766
  0
ENDSEC
  0
SECTION
  2
OBJECTS
  0
DICTIONARY
  5
19
100
AcDbDictionary
  3
ACAD_GROUP
350
1A
  3
ACAD_MLINESTYLE
350
1B
  0
DICTIONARY
  5
1A
102
{ACAD_REACTORS
330
19
102
}
100
AcDbDictionary
  0
DICTIONARY
  5
1B
102
{ACAD_REACTORS
330
19
102
}
100
AcDbDictionary
  3
STANDARD
350
1C
  0
MLINESTYLE
  5
1C
102
{ACAD_REACTORS
330
1B
102
}
100
AcDbMlineStyle
  2
STANDARD
 70
           0
  3

 62
           0
 51
90.0
 52
90.0
 71
           2
 49
0.5
 62
         256
  6
BYLAYER
 49
-0.5
 62
         256
  6
BYLAYER
  0
ENDSEC
  0
EOF
