  0
SECTION
  2
HEADER
  9
$ACADVER
  1
AC1014
  9
$ACADMAINTVER
 70
           0
  9
$DWGCODEPAGE
  3
DOS932
  9
$INSBASE
 10
0.0
 20
0.0
 30
0.0
  9
$EXTMIN
 10
1.000000000000E+20
 20
1.000000000000E+20
 30
1.000000000000E+20
  9
$EXTMAX
 10
-1.000000000000E+20
 20
-1.000000000000E+20
 30
-1.000000000000E+20
  9
$LIMMIN
 10
0.0
 20
0.0
  9
$LIMMAX
 10
0.0
 20
0.0
  9
$ORTHOMODE
 70
           0
  9
$REGENMODE
 70
           1
  9
$FILLMODE
 70
           1
  9
$QTEXTMODE
 70
           0
  9
$MIRRTEXT
 70
           1
  9
$DRAGMODE
 70
           2
  9
$LTSCALE
 40
1.0
  9
$OSMODE
 70
           0
  9
$ATTMODE
 70
           1
  9
$TEXTSIZE
 40
0.2
  9
$TRACEWID
 40
0.05
  9
$TEXTSTYLE
  7
STANDARD
  9
$CLAYER
  8
0
  9
$CELTYPE
  6
CONTINUOUS
  9
$CECOLOR
 62
         256
  9
$CELTSCALE
 40
1.0
  9
$DELOBJ
 70
           1
  9
$DISPSILH
 70
           0
  9
$DIMSCALE
 40
1.0
  9
$DIMASZ
 40
0.18
  9
$DIMEXO
 40
0.0625
  9
$DIMDLI
 40
0.38
  9
$DIMRND
 40
0.0
  9
$DIMDLE
 40
0.0
  9
$DIMEXE
 40
0.18
  9
$DIMTP
 40
0.0
  9
$DIMTM
 40
0.0
  9
$DIMTXT
 40
0.18
  9
$DIMCEN
 40
0.09
  9
$DIMTSZ
 40
0.0
  9
$DIMTOL
 70
           0
  9
$DIMLIM
 70
           0
  9
$DIMTIH
 70
           1
  9
$DIMTOH
 70
           1
  9
$DIMSE1
 70
           0
  9
$DIMSE2
 70
           0
  9
$DIMTAD
 70
           0
  9
$DIMZIN
 70
           0
  9
$DIMBLK
  1

  9
$DIMASO
 70
           1
  9
$DIMSHO
 70
           1
  9
$DIMPOST
  1

  9
$DIMAPOST
  1

  9
$DIMALT
 70
           0
  9
$DIMALTD
 70
           2
  9
$DIMALTF
 40
25.4
  9
$DIMLFAC
 40
1.0
  9
$DIMTOFL
 70
           0
  9
$DIMTVP
 40
0.0
  9
$DIMTIX
 70
           0
  9
$DIMSOXD
 70
           0
  9
$DIMSAH
 70
           0
  9
$DIMBLK1
  1

  9
$DIMBLK2
  1

  9
$DIMSTYLE
  2
STANDARD
  9
$DIMCLRD
 70
           0
  9
$DIMCLRE
 70
           0
  9
$DIMCLRT
 70
           0
  9
$DIMTFAC
 40
1.0
  9
$DIMGAP
 40
0.09
  9
$DIMJUST
 70
           0
  9
$DIMSD1
 70
           0
  9
$DIMSD2
 70
           0
  9
$DIMTOLJ
 70
           1
  9
$DIMTZIN
 70
           0
  9
$DIMALTZ
 70
           0
  9
$DIMALTTZ
 70
           0
  9
$DIMFIT
 70
           3
  9
$DIMUPT
 70
           0
  9
$DIMUNIT
 70
           2
  9
$DIMDEC
 70
           4
  9
$DIMTDEC
 70
           4
  9
$DIMALTU
 70
           2
  9
$DIMALTTD
 70
           2
  9
$DIMTXSTY
  7
STANDARD
  9
$DIMAUNIT
 70
           0
  9
$LUNITS
 70
           2
  9
$LUPREC
 70
           4
  9
$SKETCHINC
 40
0.1
  9
$FILLETRAD
 40
0.0
  9
$AUNITS
 70
           0
  9
$AUPREC
 70
           0
  9
$MENU
  1
acad
  9
$ELEVATION
 40
0.0
  9
$PELEVATION
 40
0.0
  9
$THICKNESS
 40
0.0
  9
$LIMCHECK
 70
           0
  9
$BLIPMODE
 70
           1
  9
$CHAMFERA
 40
0.0
  9
$CHAMFERB
 40
0.0
  9
$CHAMFERC
 40
0.0
  9
$CHAMFERD
 40
0.0
  9
$SKPOLY
 70
           0
  9
$TDCREATE
 40
0.000000000
  9
$TDUPDATE
 40
0.000000000
  9
$TDINDWG
 40
0.0000000000
  9
$TDUSRTIMER
 40
0.0000000000
  9
$USRTIMER
 70
           1
  9
$ANGBASE
 50
0.0
  9
$ANGDIR
 70
           0
  9
$PDMODE
 70
           0
  9
$PDSIZE
 40
0.0
  9
$PLINEWID
 40
0.0
  9
$COORDS
 70
           0
  9
$SPLFRAME
 70
           0
  9
$SPLINETYPE
 70
           6
  9
$SPLINESEGS
 70
           8
  9
$ATTDIA
 70
           0
  9
$ATTREQ
 70
           1
  9
$HANDLING
 70
           1
  9
$HANDSEED
  5
59C
  9
$SURFTAB1
 70
           6
  9
$SURFTAB2
 70
           6
  9
$SURFTYPE
 70
           6
  9
$SURFU
 70
           6
  9
$SURFV
 70
           6
  9
$UCSNAME
  2

  9
$UCSORG
 10
0.0
 20
0.0
 30
0.0
  9
$UCSXDIR
 10
1.0
 20
0.0
 30
0.0
  9
$UCSYDIR
 10
0.0
 20
1.0
 30
0.0
  9
$PUCSNAME
  2

  9
$PUCSORG
 10
0.0
 20
0.0
 30
0.0
  9
$PUCSXDIR
 10
1.0
 20
0.0
 30
0.0
  9
$PUCSYDIR
 10
0.0
 20
1.0
 30
0.0
  9
$USERI1
 70
           0
  9
$USERI2
 70
           0
  9
$USERI3
 70
           0
  9
$USERI4
 70
           0
  9
$USERI5
 70
           0
  9
$USERR1
 40
0.0
  9
$USERR2
 40
0.0
  9
$USERR3
 40
0.0
  9
$USERR4
 40
0.0
  9
$USERR5
 40
0.0
  9
$WORLDVIEW
 70
           1
  9
$SHADEDGE
 70
           3
  9
$SHADEDIF
 70
          70
  9
$TILEMODE
 70
           1
  9
$MAXACTVP
 70
          16
  9
$PINSBASE
 10
0.0
 20
0.0
 30
0.0
  9
$PLIMCHECK
 70
           0
  9
$PEXTMIN
 10
1.000000000000E+20
 20
1.000000000000E+20
 30
1.000000000000E+20
  9
$PEXTMAX
 10
-1.000000000000E+20
 20
-1.000000000000E+20
 30
-1.000000000000E+20
  9
$PLIMMIN
 10
0.0
 20
0.0
  9
$PLIMMAX
 10
12.0
 20
9.0
  9
$UNITMODE
 70
           0
  9
$VISRETAIN
 70
           0
  9
$PLINEGEN
 70
           1
  9
$PSLTSCALE
 70
           0
  9
$TREEDEPTH
 70
        3020
  9
$PICKSTYLE
 70
           1
  9
$CMLSTYLE
  2
STANDARD
  9
$CMLJUST
 70
           0
  9
$CMLSCALE
 40
1.0
  9
$PROXYGRAPHICS
 70
           0
  9
$MEASUREMENT
 70
           0
  0
ENDSEC
  0
SECTION
  2
CLASSES
  0
CLASS
  1
LWPOLYLINE
  2
AcDbPolyline
  3
"AutoCAD"
 90
        0
280
           0
281
           1
  0
CLASS
  1
IMAGE
  2
AcDbRasterImage
  3
ISM
 90
      127
280
           0
281
           1
  0
CLASS
  1
OLE2FRAME
  2
AcDbOle2Frame
  3
""
 90
        0
280
           0
281
           1
  0
CLASS
  1
HATCH
  2
AcDbHatch
  3
"ACAD_SEDONA"
 90
        0
280
           0
281
           1
  0
CLASS
  1
DICTIONARYVAR
  2
AcDbDictionaryVar
  3
"AutoCAD"
 90
        0
280
           0
281
           0
  0
CLASS
  1
RASTERVARIABLES
  2
AcDbRasterVariables
  3
ISM
 90
        0
280
           0
281
           0
  0
CLASS
  1
IMAGEDEF
  2
AcDbRasterImageDef
  3
ISM
 90
        0
280
           0
281
           0
  0
CLASS
  1
IMAGEDEF_REACTOR
  2
AcDbRasterImageDefReactor
  3
ISM
 90
        1
280
           0
281
           0
  0
CLASS
  1
IDBUFFER
  2
AcDbIdBuffer
  3
"Acad"
 90
        0
280
           0
281
           0
  0
CLASS
  1
SPATIAL_FILTER
  2
AcDbSpatialFilter
  3
"Acad"
 90
        0
280
           0
281
           0
  0
CLASS
  1
XRECORD
  2
AcDbXrecord
  3
"<Built In>"
 90
        0
280
           0
281
           0
  0
CLASS
  1
SORTENTSTABLE
  2
AcDbSortentsTable
  3
"AutoCAD"
 90
        0
280
           0
281
           0
  0
CLASS
  1
LAYER_INDEX
  2
AcDbLayerIndex
  3
"Acad"
 90
        0
280
           0
281
           0
  0
CLASS
  1
SPATIAL_INDEX
  2
AcDbSpatialIndex
  3
"Acad"
 90
        0
280
           0
281
           0
  0
CLASS
  1
OBJECT_PTR
  2
CAseDLPNTableRecord
  3
"ASE-LPNTableRecord"
 90
        1
280
           0
281
           0
  0
CLASS
  1
LAYOUT
  2
AcDbLayout
  3
"AutoCAD 2000"
 90
        1
280
           0
281
           0
  0
CLASS
  1
PLOTSETTINGS
  2
AcDbPlotSettings
  3
"AutoCAD 2000"
 90
        1
280
           0
281
           0
  0
CLASS
  1
ACDBDICTIONARYWDFLT
  2
AcDbDictionaryWithDefault
  3
"AutoCAD 2000"
 90
        1
280
           0
281
           0
  0
CLASS
  1
ACDBPLACEHOLDER
  2
AcDbPlaceHolder
  3
"AutoCAD 2000"
 90
        1
280
           0
281
           0
  0
CLASS
  1
VBA_PROJECT
  2
AcDbVbaProject
  3
"acadvba"
 90
        1
280
           0
281
           0
  0
CLASS
  1
WIPEOUT
  2
AcDbWipeout
  3
WipeOut|AutoCAD Express Tool|expresstools@autodesk.com
 90
      127
280
           0
281
           1
  0
CLASS
  1
WIPEOUTVARIABLES
  2
AcDbWipeoutVariables
  3
WipeOut|AutoCAD Express Tool|expresstools@autodesk.com
 90
        0
280
           0
281
           0
  0
CLASS
  1
RTEXT
  2
RText
  3
RText|AutoCAD Express Tool|expresstools@autodesk.com
 90
        0
280
           0
281
           1
  0
CLASS
  1
ARCALIGNEDTEXT
  2
AcDbArcAlignedText
  3
ATEXT|AutoCAD Express Tool|expresstools@autodesk.com
 90
        0
280
           0
281
           1
  0
ENDSEC
  0
SECTION
  2
TABLES
  0
TABLE
  2
VPORT
  5
7
100
AcDbSymbolTable
 70
           1
  0
VPORT
  5
15
100
AcDbSymbolTableRecord
100
AcDbViewportTableRecord
  2
*ACTIVE
 70
           0
 10
0.0
 20
0.0
 11
1.0
 21
1.0
 12
6.591288
 22
4.579184
 13
0.0
 23
0.0
 14
1.0
 24
1.0
 15
0.0
 25
0.0
 16
0.0
 26
0.0
 36
1.0
 17
0.0
 27
0.0
 37
0.0
 40
9.158369
 41
0.688564
 42
50.0
 43
0.0
 44
0.0
 50
0.0
 51
0.0
 71
           0
 72
         100
 73
           1
 74
           1
 75
           0
 76
           0
 77
           0
 78
           0
  0
ENDTAB
  0
TABLE
  2
LTYPE
  5
4
100
AcDbSymbolTable
 70
          10
  0
LTYPE
  5
11
100
AcDbSymbolTableRecord
100
AcDbLinetypeTableRecord
  2
BYBLOCK
 70
          64
  3

 72
          65
 73
           0
 40
0.0
  0
LTYPE
  5
12
100
AcDbSymbolTableRecord
100
AcDbLinetypeTableRecord
  2
BYLAYER
 70
          64
  3

 72
          65
 73
           0
 40
0.0
  0
LTYPE
  5
13
100
AcDbSymbolTableRecord
100
AcDbLinetypeTableRecord
  2
CONTINUOUS
 70
          64
  3
Solid line
 72
          65
 73
           0
 40
0.0
  0
LTYPE
  5
1D
100
AcDbSymbolTableRecord
100
AcDbLinetypeTableRecord
  2
DASHED
 70
          64
  3
Dashed
 72
          65
 73
           2
 40
15.0
 49
12.0
 74
           0
 49
-3.0
 74
           0
  0
LTYPE
  5
1E
100
AcDbSymbolTableRecord
100
AcDbLinetypeTableRecord
  2
DOTTED
 70
          64
  3
Dotted
 72
          65
 73
           2
 40
3.5
 49
0.5
 74
           0
 49
-3.0
 74
           0
  0
LTYPE
  5
1F
100
AcDbSymbolTableRecord
100
AcDbLinetypeTableRecord
  2
DOT_CENTER
 70
          64
  3
Dot_Center
 72
          65
 73
           4
 40
2.0
 49
1.25
 74
           0
 49
-0.25
 74
           0
 49
0.25
 74
           0
 49
-0.25
 74
           0
  0
LTYPE
  5
20
100
AcDbSymbolTableRecord
100
AcDbLinetypeTableRecord
  2
LONG_DASHED
 70
          64
  3
Long_Dashed
 72
          65
 73
           2
 40
2.0
 49
1.5
 74
           0
 49
-0.5
 74
           0
  0
LTYPE
  5
21
100
AcDbSymbolTableRecord
100
AcDbLinetypeTableRecord
  2
DASH_CENTER
 70
          64
  3
Dash_Center
 72
          65
 73
           4
 40
36.0
 49
24.0
 74
           0
 49
-3.0
 74
           0
 49
6.0
 74
           0
 49
-3.0
 74
           0
  0
LTYPE
  5
22
100
AcDbSymbolTableRecord
100
AcDbLinetypeTableRecord
  2
PHANTOM
 70
          64
  3
Phantom
 72
          65
 73
           6
 40
2.5
 49
1.25
 74
           0
 49
-0.25
 74
           0
 49
0.25
 74
           0
 49
-0.25
 74
           0
 49
0.25
 74
           0
 49
-0.25
 74
           0
  0
LTYPE
  5
23
100
AcDbSymbolTableRecord
100
AcDbLinetypeTableRecord
  2
CENTER_DASH_DASH
 70
          64
  3
Center_Dash_Dash
 72
          65
 73
           6
 40
22.0
 49
12.0
 74
           0
 49
-3.0
 74
           0
 49
0.5
 74
           0
 49
-3.0
 74
           0
 49
0.5
 74
           0
 49
-3.0
 74
           0
  0
ENDTAB
  0
TABLE
  2
LAYER
  5
2
100
AcDbSymbolTable
 70
           3
  0
LAYER
  5
14
100
AcDbSymbolTableRecord
100
AcDbLayerTableRecord
  2
0
 70
           0
 62
           7
  6
CONTINUOUS
  0
LAYER
  5
24
100
AcDbSymbolTableRecord
100
AcDbLayerTableRecord
  2
976
 70
           0
 62
           7
  6
CONTINUOUS
  0
LAYER
  5
25
100
AcDbSymbolTableRecord
100
AcDbLayerTableRecord
  2
1
 70
           0
 62
           7
  6
CONTINUOUS
  0
ENDTAB
  0
TABLE
  2
STYLE
  5
3
100
AcDbSymbolTable
 70
           1
  0
STYLE
  5
17
100
AcDbSymbolTableRecord
100
AcDbTextStyleTableRecord
  2
STANDARD
 70
           0
 40
0.0
 41
1.0
 50
0.0
 71
           0
 42
0.0
  3
txt
  4

  0
ENDTAB
  0
TABLE
  2
VIEW
  5
5
100
AcDbSymbolTable
 70
           0
  0
ENDTAB
  0
TABLE
  2
UCS
  5
6
100
AcDbSymbolTable
 70
           0
  0
ENDTAB
  0
TABLE
  2
APPID
  5
8
100
AcDbSymbolTable
 70
           1
  0
APPID
  5
16
100
AcDbSymbolTableRecord
100
AcDbRegAppTableRecord
  2
ACAD
 70
           0
  0
ENDTAB
  0
TABLE
  2
DIMSTYLE
  5
9
100
AcDbSymbolTable
 70
           1
  0
DIMSTYLE
105
18
100
AcDbSymbolTableRecord
100
AcDbDimStyleTableRecord
  2
STANDARD
 70
           0
  3

  4

  5

  6

  7

 40
1.0
 41
0.18
 42
0.0625
 43
0.38
 44
0.18
 45
0.0
 46
0.0
 47
0.0
 48
0.0
 71
           0
 72
           0
 73
           1
 74
           1
 75
           0
 76
           0
 77
           0
 78
           0
140
0.18
141
0.09
142
0.0
143
25.4
144
1.0
145
0.0
146
1.0
147
0.09
170
           0
171
           2
172
           0
173
           0
174
           0
175
           0
176
           0
177
           0
178
           0
270
           2
271
           4
272
           4
273
           2
274
           2
275
           0
280
           0
281
           0
282
           0
283
           1
284
           0
285
           0
286
           0
287
           0
288
           0
340
17
  0
ENDTAB
  0
TABLE
  2
BLOCK_RECORD
  5
1
100
AcDbSymbolTable
 70
           5
  0
BLOCK_RECORD
  5
A
100
AcDbSymbolTableRecord
100
AcDbBlockTableRecord
  2
*MODEL_SPACE
  0
BLOCK_RECORD
  5
B
100
AcDbSymbolTableRecord
100
AcDbBlockTableRecord
  2
*PAPER_SPACE
  0
BLOCK_RECORD
  5
26
100
AcDbSymbolTableRecord
100
AcDbBlockTableRecord
  2
_14__S__1
  0
BLOCK_RECORD
  5
28
100
AcDbSymbolTableRecord
100
AcDbBlockTableRecord
  2
_14__S__2
  0
BLOCK_RECORD
  5
2A
100
AcDbSymbolTableRecord
100
AcDbBlockTableRecord
  2
13058600
  0
BLOCK_RECORD
  5
2D
100
AcDbSymbolTableRecord
100
AcDbBlockTableRecord
  2
LPH_50_S11B_101
  0
BLOCK_RECORD
  5
30
100
AcDbSymbolTableRecord
100
AcDbBlockTableRecord
  2
LPH_50_S11B_101A
  0
ENDTAB
  0
ENDSEC
  0
SECTION
  2
BLOCKS
  0
BLOCK
  5
D
100
AcDbEntity
  8
0
100
AcDbBlockBegin
  2
*MODEL_SPACE
 70
           0
 10
0.0
 20
0.0
 30
0.0
  3
*MODEL_SPACE
  1

  0
ENDBLK
  5
E
100
AcDbEntity
  8
0
100
AcDbBlockEnd
  0
BLOCK
  5
F
100
AcDbEntity
 67
           1
  8
0
100
AcDbBlockBegin
  2
*PAPER_SPACE
 70
           0
 10
0.0
 20
0.0
 30
0.0
  3
*PAPER_SPACE
  1

  0
ENDBLK
  5
10
100
AcDbEntity
 67
           1
  8
0
100
AcDbBlockEnd
  0
BLOCK
  5
27
100
AcDbEntity
  8
0
100
AcDbBlockBegin
  2
_14__S__1
 70
           0
 10
0.0
 20
0.0
 30
0.0
  3
_14__S__1
  1

  0
ARC
  5
4FF
100
AcDbEntity
  8
1
  6
CONTINUOUS
 62
           7
100
AcDbCircle
 10
-62.683536174529
 20
772.453770476731
 40
5.0
100
AcDbArc
 50
-0.417005653218
 51
59.582994346783
  0
ARC
  5
4FE
100
AcDbEntity
  8
1
  6
CONTINUOUS
 62
           7
100
AcDbCircle
 10
-67.861936220759
 20
747.960573384884
 40
10.0
100
AcDbArc
 50
-35.695496531595
 51
-0.417005653217
  0
ARC
  5
4FD
100
AcDbEntity
  8
1
  6
CONTINUOUS
 62
           7
100
AcDbCircle
 10
-20.095635097864
 20
764.78264306667
 40
0.099999999999
100
AcDbArc
 50
123.157585404343
 51
-92.040955369979
  0
ARC
  5
4FC
100
AcDbEntity
  8
1
  6
CONTINUOUS
 62
           7
100
AcDbCircle
 10
-17.951629399878
 20
757.58662532532
 40
0.100000000003
100
AcDbArc
 50
123.703797687584
 51
-92.181678900992
  0
ARC
  5
4FB
100
AcDbEntity
  8
1
  6
CONTINUOUS
 62
           7
100
AcDbCircle
 10
-15.873295995133
 20
756.211891865197
 40
0.100000000001
100
AcDbArc
 50
-62.553011497375
 51
85.631857231377
  0
ARC
  5
4FA
100
AcDbEntity
  8
1
  6
CONTINUOUS
 62
           7
100
AcDbCircle
 10
-16.557304405224
 20
754.55667430951
 40
0.100000000001
100
AcDbArc
 50
116.849985802078
 51
-84.985085455828
  0
ARC
  5
4F9
100
AcDbEntity
  8
1
  6
CONTINUOUS
 62
           7
100
AcDbCircle
 10
-15.116931853526
 20
753.523484972957
 40
0.1
100
AcDbArc
 50
-56.622098792496
 51
95.766604922234
  0
ARC
  5
4F8
100
AcDbEntity
  8
1
  6
CONTINUOUS
 62
           7
100
AcDbCircle
 10
-9.516194877914
 20
734.790831761694
 40
0.099999999999
100
AcDbArc
 50
-49.455719028938
 51
106.329152807953
  0
ARC
  5
4F7
100
AcDbEntity
  8
1
  6
CONTINUOUS
 62
           7
100
AcDbCircle
 10
-10.248476222046
 20
732.563093747482
 40
0.099999999997
100
AcDbArc
 50
130.181220154025
 51
-73.670847191801
  0
ARC
  5
4F6
100
AcDbEntity
  8
1
  6
CONTINUOUS
 62
           7
100
AcDbCircle
 10
-9.41107455656
 20
728.446911070276
 40
0.099999999999
100
AcDbArc
 50
123.552983359243
 51
-92.213153638958
  0
ARC
  5
4F5
100
AcDbEntity
  8
1
  6
CONTINUOUS
 62
           7
100
AcDbCircle
 10
-21.337235440513
 20
706.686968099989
 40
1.0
100
AcDbArc
 50
-171.670847192002
 51
-83.670847192031
  0
ARC
  5
4F4
100
AcDbEntity
  8
1
  6
CONTINUOUS
 62
           7
100
AcDbCircle
 10
-6.984390476512
 20
695.003405965344
 40
1.0
100
AcDbArc
 50
-83.670847192045
 51
6.329152807967
  0
ARC
  5
4F3
100
AcDbEntity
  8
1
  6
CONTINUOUS
 62
           7
100
AcDbCircle
 10
-17.917345395186
 20
693.790765562649
 40
1.0
100
AcDbArc
 50
-173.670847192033
 51
-83.670847192018
  0
ARC
  5
4F2
100
AcDbEntity
  8
1
  6
CONTINUOUS
 62
           7
100
AcDbCircle
 10
-7.324493476104
 20
703.512384174638
 40
1.0
100
AcDbArc
 50
-83.670847192032
 51
6.329152807967
  0
ARC
  5
4F1
100
AcDbEntity
  8
1
  6
CONTINUOUS
 62
           7
100
AcDbCircle
 10
-19.450134385906
 20
702.167455728012
 40
1.0
100
AcDbArc
 50
-173.670847192033
 51
-83.670847192032
  0
ARC
  5
4F0
100
AcDbEntity
  8
1
  6
CONTINUOUS
 62
           7
100
AcDbCircle
 10
-103.839626288851
 20
785.270870981625
 40
0.8
100
AcDbArc
 50
-13.670847192076
 51
96.329152807968
  0
ARC
  5
4EF
100
AcDbEntity
  8
1
  6
CONTINUOUS
 62
           7
100
AcDbCircle
 10
-103.067946032591
 20
778.31353603338
 40
0.8
100
AcDbArc
 50
-83.670847192032
 51
26.329152808007
  0
ARC
  5
4EE
100
AcDbEntity
  8
1
  6
CONTINUOUS
 62
           7
100
AcDbCircle
 10
-66.894745290782
 20
781.589015444293
 40
1.999999999999
100
AcDbArc
 50
-68.059858658362
 51
6.32915280797
  0
ARC
  5
4ED
100
AcDbEntity
  8
1
  6
CONTINUOUS
 62
           7
100
AcDbCircle
 10
-82.301768440787
 20
774.580044553146
 40
1.000000000001
100
AcDbArc
 50
-128.670847192037
 51
-83.670847192031
  0
ARC
  5
4EC
100
AcDbEntity
  8
1
  6
CONTINUOUS
 62
           7
100
AcDbCircle
 10
-63.826645514215
 20
790.212019785534
 40
2.0
100
AcDbArc
 50
96.329152807968
 51
-173.67084719203
  0
ARC
  5
4EB
100
AcDbEntity
  8
1
  6
CONTINUOUS
 62
           7
100
AcDbCircle
 10
-68.12949626821
 20
810.863544557057
 40
1.0
100
AcDbArc
 50
-83.670847192031
 51
6.329152807973
  0
ARC
  5
4EA
100
AcDbEntity
  8
1
  6
CONTINUOUS
 62
           7
100
AcDbCircle
 10
-69.123401260817
 20
810.753304520449
 40
1.0
100
AcDbArc
 50
-173.670847192033
 51
-83.670847192031
  0
ARC
  5
4E9
100
AcDbEntity
  8
1
  6
CONTINUOUS
 62
           7
100
AcDbCircle
 10
-84.296114727092
 20
793.58945795969
 40
1.0
100
AcDbArc
 50
112.825665040795
 51
141.329152808023
  0
ARC
  5
4E8
100
AcDbEntity
  8
1
  6
CONTINUOUS
 62
           7
100
AcDbCircle
 10
-82.34478575964
 20
778.599802778444
 40
5.0
100
AcDbArc
 50
-83.670847192031
 51
-68.059858658346
  0
ARC
  5
4E7
100
AcDbEntity
  8
1
  6
CONTINUOUS
 62
           7
100
AcDbCircle
 10
-96.970484486294
 20
772.953048204514
 40
1.0
100
AcDbArc
 50
-173.670847192033
 51
-83.670847192031
  0
ARC
  5
4E6
100
AcDbEntity
  8
1
  6
CONTINUOUS
 62
           7
100
AcDbCircle
 10
-99.065045181858
 20
791.83724306404
 40
1.0
100
AcDbArc
 50
96.329152807968
 51
-173.670847192033
  0
ARC
  5
4E5
100
AcDbEntity
  8
1
  6
CONTINUOUS
 62
           7
100
AcDbCircle
 10
-35.808217527855
 20
777.916907722562
 40
3.0
100
AcDbArc
 50
8.329152807959
 51
82.32915280797
  0
ARC
  5
4E4
100
AcDbEntity
  8
1
  6
CONTINUOUS
 62
           7
100
AcDbCircle
 10
-48.321727629551
 20
791.931764356629
 40
2.0
100
AcDbArc
 50
6.32915280797
 51
96.329152807968
  0
ARC
  5
4E3
100
AcDbEntity
  8
1
  6
CONTINUOUS
 62
           7
100
AcDbCircle
 10
-30.194224616569
 20
811.923715298277
 40
1.0
100
AcDbArc
 50
16.329152807973
 51
104.615715374662
  0
ARC
  5
4E2
100
AcDbEntity
  8
1
  6
CONTINUOUS
 62
           7
100
AcDbCircle
 10
-43.415965205173
 20
783.98672194667
 40
2.0
100
AcDbArc
 50
-173.67084719203
 51
-97.670847192017
  0
ARC
  5
4E1
100
AcDbEntity
  8
1
  6
CONTINUOUS
 62
           7
100
AcDbCircle
 10
-39.132723907862
 20
815.71795375739
 40
5.000000000001
100
AcDbArc
 50
-128.732381848843
 51
-74.296047694399
  0
ARC
  5
4E0
100
AcDbEntity
  8
1
  6
CONTINUOUS
 62
           7
100
AcDbCircle
 10
-60.647303919491
 20
806.903201795331
 40
3.0
100
AcDbArc
 50
-71.010421634692
 51
6.329152807969
  0
ARC
  5
4DF
100
AcDbEntity
  8
1
  6
CONTINUOUS
 62
           7
100
AcDbCircle
 10
-5.707519516113
 20
785.087842464572
 40
0.5
100
AcDbArc
 50
-83.670847192032
 51
6.32915280796
  0
ARC
  5
4DE
100
AcDbEntity
  8
1
  6
CONTINUOUS
 62
           7
100
AcDbCircle
 10
-7.361120065242
 20
799.996417353672
 40
0.5
100
AcDbArc
 50
6.329152807973
 51
96.329152807968
  0
ARC
  5
4DD
100
AcDbEntity
  8
1
  6
CONTINUOUS
 62
           7
100
AcDbCircle
 10
-7.424543321978
 20
779.866735008811
 40
4.5
100
AcDbArc
 50
96.329152807968
 51
-152.587746184773
  0
ARC
  5
4DC
100
AcDbEntity
  8
1
  6
CONTINUOUS
 62
           7
100
AcDbCircle
 10
17.609371893492
 20
795.723119519444
 40
3.5
100
AcDbArc
 50
6.329152807968
 51
96.329152807963
  0
ARC
  5
4DB
100
AcDbEntity
  8
1
  6
CONTINUOUS
 62
           7
100
AcDbCircle
 10
17.7196119301
 20
794.729214526839
 40
3.5
100
AcDbArc
 50
-83.670847192027
 51
6.32915280797
  0
ARC
  5
4DA
100
AcDbEntity
  8
1
  6
CONTINUOUS
 62
           7
100
AcDbCircle
 10
-158.954555122492
 20
801.795718275753
 40
2.0
100
AcDbArc
 50
-163.408190664542
 51
-83.670847192034
  0
ARC
  5
4D9
100
AcDbEntity
  8
1
  6
CONTINUOUS
 62
           7
100
AcDbCircle
 10
-156.311567592569
 20
802.088868067959
 40
2.0
100
AcDbArc
 50
-83.670847192031
 51
-3.933503719517
  0
ARC
  5
4D8
100
AcDbEntity
  8
1
  6
CONTINUOUS
 62
           7
100
AcDbCircle
 10
-159.761608336841
 20
808.160014508506
 40
3.000000000001
100
AcDbArc
 50
103.173796861221
 51
152.784549655331
  0
ARC
  5
4D7
100
AcDbEntity
  8
1
  6
CONTINUOUS
 62
           7
100
AcDbCircle
 10
-156.918778378783
 20
808.475330037636
 40
3.0
100
AcDbArc
 50
39.8737559606
 51
89.484508754717
  0
ARC
  5
4D6
100
AcDbEntity
  8
1
  6
CONTINUOUS
 62
           7
100
AcDbCircle
 10
-138.958780714601
 20
688.912026240963
 40
1.0
100
AcDbArc
 50
-83.670847192017
 51
6.329152807967
  0
ARC
  5
4D5
100
AcDbEntity
  8
1
  6
CONTINUOUS
 62
           7
100
AcDbCircle
 10
-151.084421624402
 20
687.567097794337
 40
1.0
100
AcDbArc
 50
-173.670847192033
 51
-83.670847192033
  0
ARC
  5
4D4
100
AcDbEntity
  8
1
  6
CONTINUOUS
 62
           7
100
AcDbCircle
 10
-149.551632633682
 20
679.190407628973
 40
1.0
100
AcDbArc
 50
-173.670847192033
 51
-83.670847192017
  0
ARC
  5
4D3
100
AcDbEntity
  8
1
  6
CONTINUOUS
 62
           7
100
AcDbCircle
 10
-138.618677715009
 20
680.403048031668
 40
1.0
100
AcDbArc
 50
-83.670847192046
 51
6.329152807967
  0
SPLINE
  5
4D2
100
AcDbEntity
  8
1
  6
CONTINUOUS
 62
           7
100
AcDbSpline
210
0.0
220
0.0
230
1.0
 70
           0
 71
           4
 72
          12
 73
           8
 74
          11
 42
0.00000000001
 43
0.00000000001
 44
0.00000000001
 40
0.0
 40
0.0
 40
0.0
 40
0.0
 40
0.1752901179400689
 40
0.3498316064731541
 40
0.4381560058282688
 40
0.6132059768996996
 40
0.7895636867857726
 40
0.7895636867857726
 40
0.7895636867857726
 40
0.7895636867857726
 10
-14.300104816639189
 20
756.91565459481387
 30
0.0
 10
-14.324115850847379
 20
756.99944696884904
 30
0.0
 10
-14.36542464000628
 20
757.07729082773631
 30
0.0
 10
-14.4773883977865
 20
757.2111894765834
 30
0.0
 10
-14.54682071494206
 20
757.2657820846531
 30
0.0
 10
-14.70376308709027
 20
757.34331649118724
 30
0.0
 10
-14.78955932124339
 20
757.3654116089283
 30
0.0
 10
-14.87722930857298
 20
757.36943076830369
 30
0.0
 11
-14.300104816639189
 21
756.91565459481387
 31
0.0
 11
-14.335560190024287
 21
757.01426330235665
 31
0.0
 11
-14.377585815331422
 21
757.08475434724198
 31
0.0
 11
-14.432609137404079
 21
757.15581155687323
 31
0.0
 11
-14.488180076136555
 21
757.21656811158346
 31
0.0
 11
-14.512438878198143
 21
757.23797415013519
 31
0.0
 11
-14.538945473621739
 21
757.25650057511461
 31
0.0
 11
-14.611237833260258
 21
757.29630290040905
 31
0.0
 11
-14.693464248740927
 21
757.33319350875502
 31
0.0
 11
-14.77235952582806
 21
757.35772848948636
 31
0.0
 11
-14.87722930857298
 21
757.36943076830369
 31
0.0
  0
SPLINE
  5
4D1
100
AcDbEntity
  8
1
  6
CONTINUOUS
 62
           7
100
AcDbSpline
210
0.0
220
0.0
230
1.0
 70
           0
 71
           4
 72
          14
 73
          10
 74
          15
 42
0.00000000001
 43
0.00000000001
 44
0.00000000001
 40
0.0
 40
0.0
 40
0.0
 40
0.0
 40
0.1521148469421211
 40
0.303460278236777
 40
0.3795995464436576
 40
0.5305594179525675
 40
0.6065058424445269
 40
0.7571307198718557
 40
0.9081995752293316
 40
0.9081995752293316
 40
0.9081995752293316
 40
0.9081995752293316
 10
-17.871328174454749
 20
755.06144663652913
 30
0.0
 10
-17.938660957725968
 20
755.02662761477541
 30
0.0
 10
-17.99948016857925
 20
754.98053478903068
 30
0.0
 10
-18.102722151298391
 20
754.86987073624937
 30
0.0
 10
-18.144369006362499
 20
754.80613120670648
 30
0.0
 10
-18.204037740235488
 20
754.66746424956102
 30
0.0
 10
-18.22161117770413
 20
754.59357897573295
 30
0.0
 10
-18.23068476030511
 20
754.44322764119022
 30
0.0
 10
-18.22211671277935
 20
754.36789154837641
 30
0.0
 10
-18.200826095657579
 20
754.2957192826118
 30
0.0
 11
-17.871328174454749
 21
755.06144663652913
 31
0.0
 11
-17.94998058270934
 21
755.015208537891
 31
0.0
 11
-18.005090616291927
 21
754.96977051730596
 31
0.0
 11
-18.060070002340716
 21
754.9143601576734
 31
0.0
 11
-18.106871830902005
 21
754.86034128758649
 31
0.0
 11
-18.12332810018507
 21
754.83743799095294
 31
0.0
 11
-18.138352207997237
 21
754.81135162489738
 31
0.0
 11
-18.173424256512796
 21
754.73641419583691
 31
0.0
 11
-18.203707693318961
 21
754.65944029606987
 31
0.0
 11
-18.212282865328646
 21
754.63067676164519
 31
0.0
 11
-18.217561695267953
 21
754.60304080268668
 31
0.0
 11
-18.224470762892107
 21
754.53221913544041
 31
0.0
 11
-18.226731507233012
 21
754.45456607932965
 31
0.0
 11
-18.221641108024357
 21
754.38385063629323
 31
0.0
 11
-18.200826095657579
 21
754.2957192826118
 31
0.0
  0
SPLINE
  5
4D0
100
AcDbEntity
  8
1
  6
CONTINUOUS
 62
           7
100
AcDbSpline
210
0.0
220
0.0
230
1.0
 70
           0
 71
           4
 72
          14
 73
          10
 74
          15
 42
0.00000000001
 43
0.00000000001
 44
0.00000000001
 40
0.0
 40
0.0
 40
0.0
 40
0.0
 40
0.1312785265336551
 40
0.2617938125896411
 40
0.3277590816533842
 40
0.4586233450708062
 40
0.5247816921247788
 40
0.6519963201229989
 40
0.7839851480267869
 40
0.7839851480267869
 40
0.7839851480267869
 40
0.7839851480267869
 10
-19.787275081515329
 20
762.67232191242772
 30
0.0
 10
-19.811246042003191
 20
762.73321950837249
 30
0.0
 10
-19.840815595576402
 20
762.79203802716199
 30
0.0
 10
-19.921191284961282
 20
762.89486792772686
 30
0.0
 10
-19.971210963200619
 20
762.93787314266046
 30
0.0
 10
-20.085200765676209
 20
763.00215206899998
 30
0.0
 10
-20.148055526001571
 20
763.02279682594587
 30
0.0
 10
-20.27516316506761
 20
763.02801311464407
 30
0.0
 10
-20.341283939998799
 20
763.02315443650605
 30
0.0
 10
-20.404624349219869
 20
763.00574352391561
 30
0.0
 11
-19.787275081515329
 21
762.67232191242772
 31
0.0
 11
-19.818605591829598
 21
762.74477455367025
 31
0.0
 11
-19.849609758976289
 21
762.79807246696123
 31
0.0
 11
-19.889086027752299
 21
762.85244666028086
 31
0.0
 11
-19.929007911702946
 21
762.8993095439555
 31
0.0
 11
-19.946694124518697
 21
762.91615515908347
 31
0.0
 11
-19.967498315628877
 21
762.93184605917827
 31
0.0
 11
-20.028613026095158
 21
762.96925459877912
 31
0.0
 11
-20.092421770414102
 21
763.00225667118229
 31
0.0
 11
-20.116873424606766
 21
763.01195393180683
 31
0.0
 11
-20.140674259610559
 21
763.01783096225836
 31
0.0
 11
-20.199751332725342
 21
763.02410747473903
 31
0.0
 11
-20.264833426767311
 21
763.02576525027234
 31
0.0
 11
-20.327019182747794
 21
763.02223220581163
 31
0.0
 11
-20.404624349219869
 21
763.00574352391561
 31
0.0
  0
SPLINE
  5
4CF
100
AcDbEntity
  8
1
  6
CONTINUOUS
 62
           7
100
AcDbSpline
210
0.0
220
0.0
230
1.0
 70
           0
 71
           4
 72
          12
 73
           8
 74
          11
 42
0.00000000001
 43
0.00000000001
 44
0.00000000001
 40
0.0
 40
0.0
 40
0.0
 40
0.0
 40
0.1742059886912207
 40
0.3471532484262239
 40
0.4343877402310195
 40
0.6068433603555822
 40
0.7800107156421055
 40
0.7800107156421055
 40
0.7800107156421055
 40
0.7800107156421055
 10
-21.04907544055818
 20
765.50481319381242
 30
0.0
 10
-21.118973096609029
 20
765.45350512150344
 30
0.0
 10
-21.177639894494309
 20
765.38858838862006
 30
0.0
 10
-21.265308669344108
 20
765.23950807279607
 30
0.0
 10
-21.29338662118786
 20
765.15691578998042
 30
0.0
 10
-21.314582245110689
 20
764.98576764818779
 30
0.0
 10
-21.307476516223719
 20
764.89901568327389
 30
0.0
 10
-21.28310346688971
 20
764.81641152387533
 30
0.0
 11
-21.04907544055818
 21
765.50481319381242
 31
0.0
 11
-21.128994456147336
 21
765.43785175323228
 31
0.0
 11
-21.180722355775416
 21
765.37469827079383
 31
0.0
 11
-21.228636606855709
 21
765.29963027034637
 31
0.0
 11
-21.266866659964329
 21
765.22759942593962
 31
0.0
 11
-21.278804647240879
 21
765.19797276143242
 31
0.0
 11
-21.287388924862761
 21
765.16719264536073
 31
0.0
 11
-21.300904579228302
 21
765.08695601888655
 31
0.0
 11
-21.308564669518315
 21
764.99847383263113
 31
0.0
 11
-21.305900972016236
 21
764.91742192170716
 31
0.0
 11
-21.28310346688971
 21
764.81641152387533
 31
0.0
  0
SPLINE
  5
4CE
100
AcDbEntity
  8
1
  6
CONTINUOUS
 62
           7
100
AcDbSpline
210
0.0
220
0.0
230
1.0
 70
           0
 71
           4
 72
          14
 73
          10
 74
          15
 42
0.00000000001
 43
0.00000000001
 44
0.00000000001
 40
0.0
 40
0.0
 40
0.0
 40
0.0
 40
0.1447575137873619
 40
0.2890995123139729
 40
0.361867447386774
 40
0.5065272364014949
 40
0.5794781072155141
 40
0.7245045166217563
 40
0.8702592220633563
 40
0.8702592220633563
 40
0.8702592220633563
 40
0.8702592220633563
 10
-13.5090450088223
 20
754.21558681064323
 30
0.0
 10
-13.529416400068291
 20
754.28475756219871
 30
0.0
 10
-13.56156891409754
 20
754.34990466294778
 30
0.0
 10
-13.64664984266885
 20
754.46650589849912
 30
0.0
 10
-13.698950829037701
 20
754.51710015903927
 30
0.0
 10
-13.818541429149009
 20
754.59849145416842
 30
0.0
 10
-13.88494912360318
 20
754.62868826972579
 30
0.0
 10
-14.02523439360346
 20
754.66546737311637
 30
0.0
 10
-14.09807743729554
 20
754.67177843394143
 30
0.0
 10
-14.17046459132402
 20
754.6657375448234
 30
0.0
 11
-13.5090450088223
 21
754.21558681064323
 31
0.0
 11
-13.53805465701134
 21
754.29737667774691
 31
0.0
 11
-13.570595757848066
 21
754.35702013564821
 31
0.0
 11
-13.61260233960855
 21
754.4184886593788
 31
0.0
 11
-13.654788922591134
 21
754.47206782586466
 31
0.0
 11
-13.673314957085308
 21
754.49165235914631
 31
0.0
 11
-13.695066547719769
 21
754.51046620570685
 31
0.0
 11
-13.759174610113623
 21
754.55709144005129
 31
0.0
 11
-13.826079581436463
 21
754.5996443022957
 31
0.0
 11
-13.851630694097999
 21
754.61302676533444
 31
0.0
 11
-13.876695724504795
 21
754.6231222342185
 31
0.0
 11
-13.942273092841218
 21
754.64289425036441
 31
0.0
 11
-14.015176086614165
 21
754.65964972574432
 31
0.0
 11
-14.083070883752185
 21
754.66832094659617
 31
0.0
 11
-14.17046459132402
 21
754.6657375448234
 31
0.0
  0
SPLINE
  5
4CD
100
AcDbEntity
  8
1
  6
CONTINUOUS
 62
           7
100
AcDbSpline
210
0.0
220
0.0
230
1.0
 70
           0
 71
           4
 72
          12
 73
           8
 74
          11
 42
0.00000000001
 43
0.00000000001
 44
0.00000000001
 40
0.0
 40
0.0
 40
0.0
 40
0.0
 40
0.1634359885593141
 40
0.325706057027515
 40
0.4075445527644766
 40
0.5693532055816397
 40
0.7318120194856778
 40
0.7318120194856778
 40
0.7318120194856778
 40
0.7318120194856778
 10
-18.961164045301999
 20
758.30592837962513
 30
0.0
 10
-19.02699382956904
 20
758.2581315497431
 30
0.0
 10
-19.08242830854746
 20
758.19759353992276
 30
0.0
 10
-19.16578842723732
 20
758.05837189745046
 30
0.0
 10
-19.192847149983891
 20
757.98113612265786
 30
0.0
 10
-19.214442615049808
 20
757.8207750425446
 30
0.0
 10
-19.208754771858271
 20
757.7393174380727
 30
0.0
 10
-19.186914973746472
 20
757.66152201851571
 30
0.0
 11
-18.961164045301999
 21
758.30592837962513
 31
0.0
 11
-19.036502468786054
 21
758.24352372557132
 31
0.0
 11
-19.085443353420608
 21
758.18460420033171
 31
0.0
 11
-19.130941377390759
 21
758.11451208973506
 31
0.0
 11
-19.167367030661765
 21
758.04721997290699
 31
0.0
 11
-19.178813958753292
 21
758.01952610921853
 31
0.0
 11
-19.187145632840569
 21
757.99072822768369
 31
0.0
 11
-19.200606458366181
 21
757.91557481919483
 31
0.0
 11
-19.20869816008619
 21
757.83263199289399
 31
0.0
 11
-19.207086329510588
 21
757.75656125401429
 31
0.0
 11
-19.186914973746472
 21
757.66152201851571
 31
0.0
  0
SPLINE
  5
4CC
100
AcDbEntity
  8
1
  6
CONTINUOUS
 62
           7
100
AcDbSpline
210
0.0
220
0.0
230
1.0
 70
           0
 71
           4
 72
          12
 73
           8
 74
          11
 42
0.00000000001
 43
0.00000000001
 44
0.00000000001
 40
0.0
 40
0.0
 40
0.0
 40
0.0
 40
0.1639712938393644
 40
0.3268565508097506
 40
0.4089309969065908
 40
0.5713906176651674
 40
0.734462945338649
 40
0.734462945338649
 40
0.734462945338649
 40
0.734462945338649
 10
-8.1239138540272791
 20
734.48818356868992
 30
0.0
 10
-8.0616171526062743
 20
734.54098285723023
 30
0.0
 10
-8.0100850363963758
 20
734.6051646266136
 30
0.0
 10
-7.9341790665925771
 20
734.7492822545654
 30
0.0
 10
-7.9105146637011794
 20
734.82787112615608
 30
0.0
 10
-7.8943479944860258
 20
734.98952435743684
 30
0.0
 10
-7.9019968289885441
 20
735.07107783465892
 30
0.0
 10
-7.9231735083058368
 20
735.14942735628415
 30
0.0
 11
-8.1239138540272791
 21
734.48818356868992
 31
0.0
 11
-8.0529594467286412
 21
734.55611108796415
 31
0.0
 11
-8.0076138149016387
 21
734.61821545518433
 31
0.0
 11
-7.9659741720312782
 21
734.69107835941543
 31
0.0
 11
-7.9329924500712812
 21
734.76048321398628
 31
0.0
 11
-7.9228363316534187
 21
734.78877077784637
 31
0.0
 11
-7.9156911797937051
 21
734.81797655820287
 31
0.0
 11
-7.904926237614009
 21
734.89390405409313
 31
0.0
 11
-7.8994930226925941
 21
734.97743863773826
 31
0.0
 11
-7.9028940823187366
 21
735.05384656746401
 31
0.0
 11
-7.9231735083058368
 21
735.14942735628415
 31
0.0
  0
SPLINE
  5
4CB
100
AcDbEntity
  8
1
  6
CONTINUOUS
 62
           7
100
AcDbSpline
210
0.0
220
0.0
230
1.0
 70
           0
 71
           4
 72
          12
 73
           8
 74
          11
 42
0.00000000001
 43
0.00000000001
 44
0.00000000001
 40
0.0
 40
0.0
 40
0.0
 40
0.0
 40
0.1630305855103309
 40
0.3249887431680852
 40
0.4065898292435404
 40
0.5681282295538973
 40
0.7302534252804559
 40
0.7302534252804559
 40
0.7302534252804559
 40
0.7302534252804559
 10
-11.55010010728491
 20
732.91939666047278
 30
0.0
 10
-11.61168306358798
 20
732.86647711524904
 30
0.0
 10
-11.66253833527864
 20
732.80236400267381
 30
0.0
 10
-11.737290193965791
 20
732.65868865873927
 30
0.0
 10
-11.760494808077951
 20
732.58045642029117
 30
0.0
 10
-11.77605031293184
 20
732.41966873095032
 30
0.0
 10
-11.76825720742309
 20
732.33860168079389
 30
0.0
 10
-11.74531491037081
 20
732.26124777032169
 30
0.0
 11
-11.55010010728491
 21
732.91939666047278
 31
0.0
 11
-11.620209689234494
 21
732.85139489442895
 31
0.0
 11
-11.664944392147639
 21
732.78938682187788
 31
0.0
 11
-11.705971933531256
 21
732.71672156949728
 31
0.0
 11
-11.738432856545199
 21
732.64755119301947
 31
0.0
 11
-11.748407290369606
 21
732.6193825572675
 31
0.0
 11
-11.75539832724724
 21
732.59031721796646
 31
0.0
 11
-11.765844157976973
 21
732.51477886507416
 31
0.0
 11
-11.770991981675056
 21
732.43169506716117
 31
0.0
 11
-11.767195123494572
 21
732.35579674460155
 31
0.0
 11
-11.74531491037081
 21
732.26124777032169
 31
0.0
  0
SPLINE
  5
4CA
100
AcDbEntity
  8
1
  6
CONTINUOUS
 62
           7
100
AcDbSpline
210
0.0
220
0.0
230
1.0
 70
           0
 71
           4
 72
          14
 73
          10
 74
          15
 42
0.00000000001
 43
0.00000000001
 44
0.00000000001
 40
0.0
 40
0.0
 40
0.0
 40
0.0
 40
0.1792743956183109
 40
0.3575171833821745
 40
0.4473841496282333
 40
0.6251465556586193
 40
0.7147511638417819
 40
0.8920336367830435
 40
1.0701909395422533
 40
1.0701909395422533
 40
1.0701909395422533
 40
1.0701909395422533
 10
-9.1260676145481199
 20
736.86368362252858
 30
0.0
 10
-9.0404925014115065
 20
736.88893015782969
 30
0.0
 10
-8.9606901464326256
 20
736.93065660713205
 30
0.0
 10
-8.8217459354194716
 20
737.04230336085004
 30
0.0
 10
-8.7639636164238937
 20
737.11113122754489
 30
0.0
 10
-8.678378417263346
 20
737.26693445819933
 30
0.0
 10
-8.6514129685206456
 20
737.35238532350661
 30
0.0
 10
-8.6322163519532751
 20
737.52862540159481
 30
0.0
 10
-8.6401730185922503
 20
737.61769014588413
 30
0.0
 10
-8.6707167433282422
 20
737.7010057398885
 30
0.0
 11
-9.1260676145481199
 21
736.86368362252858
 31
0.0
 11
-9.0251975600638907
 21
736.90034423381144
 31
0.0
 11
-8.9526067918339809
 21
736.94271902592368
 31
0.0
 11
-8.8790446943878027
 21
736.99770167623046
 31
0.0
 11
-8.8157443830766322
 21
737.05307838541739
 31
0.0
 11
-8.7930902133727624
 21
737.07745881453047
 31
0.0
 11
-8.7720354320245733
 21
737.10606590064322
 31
0.0
 11
-8.7221598063424128
 21
737.18964454330592
 31
0.0
 11
-8.6784054828648287
 21
737.27655011579247
 31
0.0
 11
-8.6656186532186279
 21
737.30955673731864
 31
0.0
 11
-8.6572569011245157
 21
737.34166774308085
 31
0.0
 11
-8.6447064162861356
 21
737.4243646838961
 31
0.0
 11
-8.6380475289132654
 21
737.5154196474881
 31
0.0
 11
-8.642229751086834
 21
737.5985800411205
 31
0.0
 11
-8.6707167433282422
 21
737.7010057398885
 31
0.0
  0
SPLINE
  5
4C9
100
AcDbEntity
  8
1
  6
CONTINUOUS
 62
           7
100
AcDbSpline
210
0.0
220
0.0
230
1.0
 70
           0
 71
           4
 72
          14
 73
          10
 74
          15
 42
0.00000000001
 43
0.00000000001
 44
0.00000000001
 40
0.0
 40
0.0
 40
0.0
 40
0.0
 40
0.1327556732426149
 40
0.2657206971635665
 40
0.3329262409936888
 40
0.4662525153391391
 40
0.533654821624348
 40
0.6673400645847312
 40
0.8017967217546197
 40
0.8017967217546197
 40
0.8017967217546197
 40
0.8017967217546197
 10
-15.15295162797516
 20
746.86948931413565
 30
0.0
 10
-15.171744556805811
 20
746.93318155335612
 30
0.0
 10
-15.198886218503461
 20
746.99372484998753
 30
0.0
 10
-15.28273329013931
 20
747.09692061620103
 30
0.0
 10
-15.334509348788631
 20
747.13976714315766
 30
0.0
 10
-15.451852677815721
 20
747.20306357720949
 30
0.0
 10
-15.516271770800021
 20
747.22289414330442
 30
0.0
 10
-15.649246899095269
 20
747.23665493689487
 30
0.0
 10
-15.71650180346683
 20
747.23045051820213
 30
0.0
 10
-15.780683138318251
 20
747.21151561672491
 30
0.0
 11
-15.15295162797516
 21
746.86948931413565
 31
0.0
 11
-15.179111687468582
 21
746.94480573112651
 31
0.0
 11
-15.208794114131925
 21
746.99912381924423
 31
0.0
 11
-15.249242725778748
 21
747.05416115303854
 31
0.0
 11
-15.290763003436055
 21
747.10127410120094
 31
0.0
 11
-15.309116748323385
 21
747.11811218179218
 31
0.0
 11
-15.330611320942403
 21
747.13369931169507
 31
0.0
 11
-15.393554788598344
 21
747.17062752595928
 31
0.0
 11
-15.458999427862107
 21
747.20296818365239
 31
0.0
 11
-15.483908763145347
 21
747.21241598601796
 31
0.0
 11
-15.508104778911825
 21
747.21855040290586
 31
0.0
 11
-15.570523186429796
 21
747.22766195309623
 31
0.0
 11
-15.639244996690184
 21
747.23234775340597
 31
0.0
 11
-15.702220796501635
 21
747.22948748518866
 31
0.0
 11
-15.780683138318251
 21
747.21151561672491
 31
0.0
  0
SPLINE
  5
4C8
100
AcDbEntity
  8
1
  6
CONTINUOUS
 62
           7
100
AcDbSpline
210
0.0
220
0.0
230
1.0
 70
           0
 71
           4
 72
          14
 73
          10
 74
          15
 42
0.00000000001
 43
0.00000000001
 44
0.00000000001
 40
0.0
 40
0.0
 40
0.0
 40
0.0
 40
0.1376827787785913
 40
0.2741499131603714
 40
0.3429543091914771
 40
0.479053651308318
 40
0.5476571794495099
 40
0.6833890727919192
 40
0.8196411759635515
 40
0.8196411759635515
 40
0.8196411759635515
 40
0.8196411759635515
 10
-16.50112114986273
 20
750.34081126098772
 30
0.0
 10
-16.564527720370108
 20
750.31427344870258
 30
0.0
 10
-16.62562639840154
 20
750.28232663595475
 30
0.0
 10
-16.732005559958651
 20
750.1968470901395
 30
0.0
 10
-16.77624514793888
 20
750.14415075470197
 30
0.0
 10
-16.841771316046529
 20
750.02486390623255
 30
0.0
 10
-16.862416737740229
 20
749.95944058748069
 30
0.0
 10
-16.877114147299949
 20
749.82450677769771
 30
0.0
 10
-16.87102232440375
 20
749.75631658284794
 30
0.0
 10
-16.851854034286859
 20
749.691292688104
 30
0.0
 11
-16.50112114986273
 21
750.34081126098772
 31
0.0
 11
-16.576534624728321
 21
750.30641593439213
 31
0.0
 11
-16.631935120099691
 21
750.2730082304389
 31
0.0
 11
-16.688191929674563
 21
750.23095212600833
 31
0.0
 11
-16.736609391566258
 21
750.1885903160279
 31
0.0
 11
-16.753946208787188
 21
750.16993030267474
 31
0.0
 11
-16.770065164119632
 21
750.14802889561111
 31
0.0
 11
-16.8082511900325
 21
750.08403899732298
 31
0.0
 11
-16.84175059394525
 21
750.01750191838778
 31
0.0
 11
-16.851540564935313
 21
749.99223072304312
 31
0.0
 11
-16.857942913176046
 21
749.9676422290903
 31
0.0
 11
-16.867553671005094
 21
749.90430667729947
 31
0.0
 11
-16.872651538134839
 21
749.83456614920124
 31
0.0
 11
-16.869974341307994
 21
749.77077990781197
 31
0.0
 11
-16.851854034286859
 21
749.691292688104
 31
0.0
  0
SPLINE
  5
4C7
100
AcDbEntity
  8
1
  6
CONTINUOUS
 62
           7
100
AcDbSpline
210
0.0
220
0.0
230
1.0
 70
           0
 71
           4
 72
          12
 73
           8
 74
          11
 42
0.00000000001
 43
0.00000000001
 44
0.00000000001
 40
0.0
 40
0.0
 40
0.0
 40
0.0
 40
0.1576777879077394
 40
0.3141452841487143
 40
0.393132641542334
 40
0.5491290704747306
 40
0.705826888943044
 40
0.705826888943044
 40
0.705826888943044
 40
0.705826888943044
 10
-17.142119166119318
 20
752.06948855683117
 30
0.0
 10
-17.20770740570239
 20
752.02645893613226
 30
0.0
 10
-17.263363590260479
 20
751.97006320102855
 30
0.0
 10
-17.34738262382794
 20
751.83806744587594
 30
0.0
 10
-17.37478020802499
 20
751.76398387814197
 30
0.0
 10
-17.39669436456067
 20
751.6095343537562
 30
0.0
 10
-17.390959172942971
 20
751.53094281278857
 30
0.0
 10
-17.368931295726458
 20
751.45622493701126
 30
0.0
 11
-17.142119166119318
 21
752.06948855683117
 31
0.0
 11
-17.217330021144114
 21
752.01260049175914
 31
0.0
 11
-17.266470656326096
 21
751.9574812726039
 31
0.0
 11
-17.312269837682337
 21
751.89123716934012
 31
0.0
 11
-17.348997011810219
 21
751.82728596070956
 31
0.0
 11
-17.360575247775778
 21
751.8007857273451
 31
0.0
 11
-17.36901756516318
 21
751.7731133395605
 31
0.0
 11
-17.382658932628189
 21
751.70081700681442
 31
0.0
 11
-17.390873623502877
 21
751.62093867966996
 31
0.0
 11
-17.389272755101931
 21
751.54762152903299
 31
0.0
 11
-17.368931295726458
 21
751.45622493701126
 31
0.0
  0
SPLINE
  5
4C6
100
AcDbEntity
  8
1
  6
CONTINUOUS
 62
           7
100
AcDbSpline
210
0.0
220
0.0
230
1.0
 70
           0
 71
           4
 72
          12
 73
           8
 74
          11
 42
0.00000000001
 43
0.00000000001
 44
0.00000000001
 40
0.0
 40
0.0
 40
0.0
 40
0.0
 40
0.1727127687936504
 40
0.3441793457462039
 40
0.4306634904888149
 40
0.6016474707468862
 40
0.7733396249398207
 40
0.7733396249398207
 40
0.7733396249398207
 40
0.7733396249398207
 10
-10.41626353931011
 20
729.17805208909704
 30
0.0
 10
-10.48496375997547
 20
729.12637375507393
 30
0.0
 10
-10.542397642237081
 20
729.06136505009829
 30
0.0
 10
-10.627714357493449
 20
728.9126309077177
 30
0.0
 10
-10.65470233536209
 20
728.83046548711741
 30
0.0
 10
-10.674039623216901
 20
728.66057849290269
 30
0.0
 10
-10.66618611161987
 20
728.5746388004427
 30
0.0
 10
-10.64131388230841
 20
728.49294688029431
 30
0.0
 11
-10.41626353931011
 21
729.17805208909704
 31
0.0
 11
-10.494727676775041
 21
729.11074952155604
 31
0.0
 11
-10.545312559931054
 21
729.04756768204163
 31
0.0
 11
-10.592004634629447
 21
728.97262841044346
 31
0.0
 11
-10.629141478443005
 21
728.90081160058094
 31
0.0
 11
-10.640668691264747
 21
728.87131755560688
 31
0.0
 11
-10.648866880159821
 21
728.84071699401261
 31
0.0
 11
-10.661472875957328
 21
728.76103443564307
 31
0.0
 11
-10.668208268825579
 21
728.67323545783483
 31
0.0
 11
-10.664805429166243
 21
728.59289888546448
 31
0.0
 11
-10.64131388230841
 21
728.49294688029431
 31
0.0
  0
SPLINE
  5
4C5
100
AcDbEntity
  8
1
  6
CONTINUOUS
 62
           7
100
AcDbSpline
210
0.0
220
0.0
230
1.0
 70
           0
 71
           4
 72
          10
 73
           6
 74
           7
 42
0.00000000001
 43
0.00000000001
 44
0.00000000001
 40
0.0
 40
0.0
 40
0.0
 40
0.0
 40
0.1327652292259697
 40
0.2653669463175221
 40
0.3982608123827524
 40
0.3982608123827524
 40
0.3982608123827524
 40
0.3982608123827524
 10
-13.63542463469113
 20
741.73744997672259
 30
0.0
 10
-13.6179975998059
 20
741.67350137461165
 30
0.0
 10
-13.593537652199389
 20
741.61167978013691
 30
0.0
 10
-13.5314340865999
 20
741.49452022006835
 30
0.0
 10
-13.49397874895833
 20
741.43953744894441
 30
0.0
 10
-13.45079527524452
 20
741.3891431714718
 30
0.0
 11
-13.63542463469113
 21
741.73744997672259
 31
0.0
 11
-13.611998116425784
 21
741.66165556194085
 31
0.0
 11
-13.589287226654303
 21
741.60757580210748
 31
0.0
 11
-13.562090800171443
 21
741.55333285311758
 31
0.0
 11
-13.53246378062072
 21
741.5003734958417
 31
0.0
 11
-13.500422047419651
 21
741.45116328393658
 31
0.0
 11
-13.45079527524452
 21
741.3891431714718
 31
0.0
  0
SPLINE
  5
4C4
100
AcDbEntity
  8
1
  6
CONTINUOUS
 62
           7
100
AcDbSpline
210
0.0
220
0.0
230
1.0
 70
           0
 71
           4
 72
           8
 73
           4
 74
           3
 42
0.00000000001
 43
0.00000000001
 44
0.00000000001
 40
0.0
 40
0.0
 40
0.0
 40
0.0
 40
0.1567450137325693
 40
0.1567450137325693
 40
0.1567450137325693
 40
0.1567450137325693
 10
-13.45079527524452
 20
741.3891431714718
 30
0.0
 10
-13.41622610098965
 20
741.35033414188797
 30
0.0
 10
-13.37365202778801
 20
741.31937568455407
 30
0.0
 10
-13.32594513501718
 20
741.29835628055275
 30
0.0
 11
-13.45079527524452
 21
741.3891431714718
 31
0.0
 11
-13.393296849574334
 21
741.33707861641892
 31
0.0
 11
-13.32594513501718
 21
741.29835628055275
 31
0.0
  0
SPLINE
  5
4C3
100
AcDbEntity
  8
1
  6
CONTINUOUS
 62
           7
100
AcDbSpline
210
0.0
220
0.0
230
1.0
 70
           0
 71
           4
 72
           8
 73
           4
 74
           3
 42
0.00000000001
 43
0.00000000001
 44
0.00000000001
 40
0.0
 40
0.0
 40
0.0
 40
0.0
 40
0.859399212801248
 40
0.859399212801248
 40
0.859399212801248
 40
0.859399212801248
 10
-14.42305723137588
 20
741.40114177083069
 30
0.0
 10
-14.358026289078341
 20
741.12259219902251
 30
0.0
 10
-14.24343861142458
 20
740.85895407178327
 30
0.0
 10
-14.090242404795079
 20
740.61756819476352
 30
0.0
 11
-14.42305723137588
 21
741.40114177083069
 31
0.0
 11
-14.289711792209964
 21
740.99541859725139
 31
0.0
 11
-14.090242404795079
 21
740.61756819476352
 31
0.0
  0
SPLINE
  5
4C2
100
AcDbEntity
  8
1
  6
CONTINUOUS
 62
           7
100
AcDbSpline
210
0.0
220
0.0
230
1.0
 70
           0
 71
           4
 72
          10
 73
           6
 74
           7
 42
0.00000000001
 43
0.00000000001
 44
0.00000000001
 40
0.0
 40
0.0
 40
0.0
 40
0.0
 40
0.1958686205993397
 40
0.391609619041926
 40
0.5878949836643606
 40
0.5878949836643606
 40
0.5878949836643606
 40
0.5878949836643606
 10
-14.090242404795079
 20
740.61756819476352
 30
0.0
 10
-14.038243861310139
 20
740.53479243974107
 30
0.0
 10
-13.976985934812079
 20
740.45814965652926
 30
0.0
 10
-13.83827693516702
 20
740.32003972970006
 30
0.0
 10
-13.76126873507738
 20
740.25901354640268
 30
0.0
 10
-13.678068619117809
 20
740.20717455392355
 30
0.0
 11
-14.090242404795079
 21
740.61756819476352
 31
0.0
 11
-14.024620605816985
 21
740.52070056995399
 31
0.0
 11
-13.969176108762403
 21
740.45428336706004
 31
0.0
 11
-13.907190766322792
 21
740.38963234077619
 31
0.0
 11
-13.842266429879942
 21
740.32791349246247
 31
0.0
 11
-13.775452519937099
 21
740.2726044638506
 31
0.0
 11
-13.678068619117809
 21
740.20717455392355
 31
0.0
  0
SPLINE
  5
4C1
100
AcDbEntity
  8
1
  6
CONTINUOUS
 62
           7
100
AcDbSpline
210
0.0
220
0.0
230
1.0
 70
           0
 71
           4
 72
          10
 73
           6
 74
           7
 42
0.00000000001
 43
0.00000000001
 44
0.00000000001
 40
0.0
 40
0.0
 40
0.0
 40
0.0
 40
0.2028929169874492
 40
0.4056964604289728
 40
0.6090582340837032
 40
0.6090582340837032
 40
0.6090582340837032
 40
0.6090582340837032
 10
-13.678068619117809
 20
740.20717455392355
 30
0.0
 10
-13.58878638565044
 20
740.15946993872103
 30
0.0
 10
-13.49413398108867
 20
740.12236551341448
 30
0.0
 10
-13.297974492586389
 20
740.07088025044573
 30
0.0
 10
-13.19714515153942
 20
740.05667729747859
 30
0.0
 10
-13.095635832649929
 20
740.0543055522644
 30
0.0
 11
-13.678068619117809
 21
740.20717455392355
 31
0.0
 11
-13.569235453822087
 21
740.15392317508122
 31
0.0
 11
-13.48510658180154
 21
740.12306011332839
 31
0.0
 11
-13.395939350725046
 21
740.09735784156544
 31
0.0
 11
-13.305629788735153
 21
740.07594642662548
 31
0.0
 11
-13.216948551337005
 21
740.06145618423034
 31
0.0
 11
-13.095635832649929
 21
740.0543055522644
 31
0.0
  0
SPLINE
  5
4C0
100
AcDbEntity
  8
1
  6
CONTINUOUS
 62
           7
100
AcDbSpline
210
0.0
220
0.0
230
1.0
 70
           0
 71
           4
 72
          10
 73
           6
 74
           7
 42
0.00000000001
 43
0.00000000001
 44
0.00000000001
 40
0.0
 40
0.0
 40
0.0
 40
0.0
 40
0.2541450830580541
 40
0.5076558916063048
 40
0.7617972681920824
 40
0.7617972681920824
 40
0.7617972681920824
 40
0.7617972681920824
 10
-13.095635832649929
 20
740.0543055522644
 30
0.0
 10
-12.96898552761272
 20
740.05211859253461
 30
0.0
 10
-12.84266710590725
 20
740.06925804387947
 30
0.0
 10
-12.59951718696969
 20
740.14099260299463
 30
0.0
 10
-12.484125073998641
 20
740.19516306083779
 30
0.0
 10
-12.37894579305379
 20
740.2657448331729
 30
0.0
 11
-13.095635832649929
 21
740.0543055522644
 31
0.0
 11
-12.94417410967416
 21
740.05871537627547
 31
0.0
 11
-12.833558248427659
 21
740.07696460420061
 31
0.0
 11
-12.721432133736837
 21
740.10627984078349
 31
0.0
 11
-12.611349491923916
 21
740.14252113438681
 31
0.0
 11
-12.508543611970246
 21
740.18723596450138
 31
0.0
 11
-12.37894579305379
 21
740.2657448331729
 31
0.0
  0
SPLINE
  5
4BF
100
AcDbEntity
  8
1
  6
CONTINUOUS
 62
           7
100
AcDbSpline
210
0.0
220
0.0
230
1.0
 70
           0
 71
           4
 72
          10
 73
           6
 74
           7
 42
0.00000000001
 43
0.00000000001
 44
0.00000000001
 40
0.0
 40
0.0
 40
0.0
 40
0.0
 40
0.1790105573554334
 40
0.3573975868037915
 40
0.5359265315059004
 40
0.5359265315059004
 40
0.5359265315059004
 40
0.5359265315059004
 10
-12.37894579305379
 20
740.2657448331729
 30
0.0
 10
-12.30398448981806
 20
740.31433277852807
 30
0.0
 10
-12.2359661475016
 20
740.3727790823026
 30
0.0
 10
-12.11754159870182
 20
740.50618657278562
 30
0.0
 10
-12.06768322329788
 20
740.5805306174351
 30
0.0
 10
-12.028544429805789
 20
740.6604785856407
 30
0.0
 11
-12.37894579305379
 21
740.2657448331729
 31
0.0
 11
-12.291718254745138
 21
740.32751270747769
 31
0.0
 11
-12.233098820121359
 21
740.38053774872401
 31
0.0
 11
-12.177265307851862
 21
740.44004035734827
 31
0.0
 11
-12.12481967225426
 21
740.50252848317291
 31
0.0
 11
-12.079285092704115
 21
740.56682879574441
 31
0.0
 11
-12.028544429805789
 21
740.6604785856407
 31
0.0
  0
SPLINE
  5
4BE
100
AcDbEntity
  8
1
  6
CONTINUOUS
 62
           7
100
AcDbSpline
210
0.0
220
0.0
230
1.0
 70
           0
 71
           4
 72
          10
 73
           6
 74
           7
 42
0.00000000001
 43
0.00000000001
 44
0.00000000001
 40
0.0
 40
0.0
 40
0.0
 40
0.0
 40
0.3438606183284937
 40
0.6867513520961581
 40
1.0299465062984479
 40
1.0299465062984479
 40
1.0299465062984479
 40
1.0299465062984479
 10
-12.028544429805789
 20
740.6604785856407
 30
0.0
 10
-11.9663013889746
 20
740.82051179737232
 30
0.0
 10
-11.92298523206318
 20
740.98712225254008
 30
0.0
 10
-11.875955146225319
 20
741.32677240538828
 30
0.0
 10
-11.87240096393479
 20
741.4986584166918
 30
0.0
 10
-11.88887937469832
 20
741.66913626656731
 30
0.0
 11
-12.028544429805789
 21
740.6604785856407
 31
0.0
 11
-11.96090107391203
 21
740.85452294056165
 31
0.0
 11
-11.925921824762684
 21
741.00236552117917
 31
0.0
 11
-11.900694783086003
 21
741.15722500174843
 31
0.0
 11
-11.882906465624348
 21
741.31309215961051
 31
0.0
 11
-11.876440657860661
 21
741.46452943863596
 31
0.0
 11
-11.88887937469832
 21
741.66913626656731
 31
0.0
  0
SPLINE
  5
4BD
100
AcDbEntity
  8
1
  6
CONTINUOUS
 62
           7
100
AcDbSpline
210
0.0
220
0.0
230
1.0
 70
           0
 71
           4
 72
           8
 73
           4
 74
           3
 42
0.00000000001
 43
0.00000000001
 44
0.00000000001
 40
0.0
 40
0.0
 40
0.0
 40
0.0
 40
0.6914256077721508
 40
0.6914256077721508
 40
0.6914256077721508
 40
0.6914256077721508
 10
-11.88887937469832
 20
741.66913626656731
 30
0.0
 10
-11.89181704549125
 20
741.89960082744005
 30
0.0
 10
-11.897711722458681
 20
742.13000671325278
 30
0.0
 10
-11.90656196876701
 20
742.36029776238172
 30
0.0
 11
-11.88887937469832
 21
741.66913626656731
 31
0.0
 11
-11.895503455914389
 21
742.01478208137837
 31
0.0
 11
-11.90656196876701
 21
742.36029776238172
 31
0.0
  0
SPLINE
  5
4BC
100
AcDbEntity
  8
1
  6
CONTINUOUS
 62
           7
100
AcDbSpline
210
0.0
220
0.0
230
1.0
 70
           0
 71
           4
 72
          10
 73
           6
 74
           7
 42
0.00000000001
 43
0.00000000001
 44
0.00000000001
 40
0.0
 40
0.0
 40
0.0
 40
0.0
 40
0.1460286562234674
 40
0.2916659170907034
 40
0.4374240496911191
 40
0.4374240496911191
 40
0.4374240496911191
 40
0.4374240496911191
 10
-11.85118307531469
 20
742.78948188658251
 30
0.0
 10
-11.87654174914768
 20
742.72110582017956
 30
0.0
 10
-11.89404736217905
 20
742.65013114733642
 30
0.0
 10
-11.912684855505329
 20
742.50569134812781
 30
0.0
 10
-11.913756956596121
 20
742.43268950811671
 30
0.0
 10
-11.90656196876701
 20
742.36029776238172
 30
0.0
 11
-11.85118307531469
 21
742.78948188658251
 31
0.0
 11
-11.878690630927546
 21
742.70664963476281
 31
0.0
 11
-11.892797820701501
 21
742.64368514431226
 31
0.0
 11
-11.902859404614578
 21
742.57780196467866
 31
0.0
 11
-11.909846184252418
 21
742.51153107183723
 31
0.0
 11
-11.912167634236694
 21
742.44718925812845
 31
0.0
 11
-11.90656196876701
 21
742.36029776238172
 31
0.0
  0
SPLINE
  5
4BB
100
AcDbEntity
  8
1
  6
CONTINUOUS
 62
           7
100
AcDbSpline
210
0.0
220
0.0
230
1.0
 70
           0
 71
           4
 72
          16
 73
          12
 74
          19
 42
0.00000000001
 43
0.00000000001
 44
0.00000000001
 40
0.0
 40
0.0
 40
0.0
 40
0.0
 40
0.1021616145922419
 40
0.2040210981236343
 40
0.2555555702470991
 40
0.3576410980614742
 40
0.4092374408410719
 40
0.5113216105693512
 40
0.5628548235025573
 40
0.6647110930268028
 40
0.7668694768658648
 40
0.7668694768658648
 40
0.7668694768658648
 40
0.7668694768658648
 10
-11.241401137625489
 20
742.96938093260405
 30
0.0
 10
-11.278986265862541
 20
743.00351944620809
 30
0.0
 10
-11.323286031358119
 20
743.0295604875547
 30
0.0
 10
-11.419777058171791
 20
743.06219231449904
 30
0.0
 10
-11.47093230204695
 20
743.06843273444622
 30
0.0
 10
-11.572667489575609
 20
743.05998249139361
 30
0.0
 10
-11.62215510959561
 20
743.04538255807233
 30
0.0
 10
-11.71218410557044
 20
742.99725816100727
 30
0.0
 10
-11.75175884645587
 20
742.96425040556903
 30
0.0
 10
-11.815081696257
 20
742.88446997980896
 30
0.0
 10
-11.838149912138579
 20
742.83855390636961
 30
0.0
 10
-11.85118307531469
 20
742.78948188658251
 30
0.0
 11
-11.241401137625489
 21
742.96938093260405
 31
0.0
 11
-11.289178246985745
 21
743.00740233334682
 31
0.0
 11
-11.331559190790026
 21
743.02960164935848
 31
0.0
 11
-11.380609775711109
 21
743.04823593294202
 31
0.0
 11
-11.426783334840998
 21
743.06163370648142
 31
0.0
 11
-11.445586857240357
 21
743.06494451069841
 31
0.0
 11
-11.465919226523823
 21
743.06606379655
 31
0.0
 11
-11.521728399366012
 21
743.06351774914413
 31
0.0
 11
-11.577200609933362
 21
743.05682487609511
 31
0.0
 11
-11.597287930165201
 21
743.05226385516312
 31
0.0
 11
-11.616634245555133
 21
743.04519104938424
 31
0.0
 11
-11.666855445477976
 21
743.02070201917604
 31
0.0
 11
-11.715108585978831
 21
742.99254736027433
 31
0.0
 11
-11.731576866751254
 21
742.98057110000093
 31
0.0
 11
-11.745571581717158
 21
742.96758407562027
 31
0.0
 11
-11.777076936453307
 21
742.93126936918952
 31
0.0
 11
-11.808155897811623
 21
742.88899514834907
 31
0.0
 11
-11.831698110177159
 21
742.84734707190876
 31
0.0
 11
-11.85118307531469
 21
742.78948188658251
 31
0.0
  0
SPLINE
  5
4BA
100
AcDbEntity
  8
1
  6
CONTINUOUS
 62
           7
100
AcDbSpline
210
0.0
220
0.0
230
1.0
 70
           0
 71
           4
 72
          10
 73
           6
 74
           7
 42
0.00000000001
 43
0.00000000001
 44
0.00000000001
 40
0.0
 40
0.0
 40
0.0
 40
0.0
 40
0.1343959499922709
 40
0.268310756660835
 40
0.4026100497497304
 40
0.4026100497497304
 40
0.4026100497497304
 40
0.4026100497497304
 10
-11.016849032996619
 20
742.64034498920421
 30
0.0
 10
-11.04286222116181
 20
742.70232623521338
 30
0.0
 10
-11.07313357203935
 20
742.76229640322492
 30
0.0
 10
-11.14767572192069
 20
742.87354676653285
 30
0.0
 10
-11.191667285237591
 20
742.92441021678678
 30
0.0
 10
-11.241401137625489
 20
742.96938093260405
 30
0.0
 11
-11.016849032996619
 21
742.64034498920421
 31
0.0
 11
-11.049695936902216
 21
742.71379727259523
 31
0.0
 11
-11.078056683620122
 21
742.76595921765977
 31
0.0
 11
-11.11084124517984
 21
742.81765168370509
 31
0.0
 11
-11.146191708654333
 21
742.86764461716916
 31
0.0
 11
-11.183939327437487
 21
742.91338528819369
 31
0.0
 11
-11.241401137625489
 21
742.96938093260405
 31
0.0
  0
SPLINE
  5
4B9
100
AcDbEntity
  8
1
  6
CONTINUOUS
 62
           7
100
AcDbSpline
210
0.0
220
0.0
230
1.0
 70
           0
 71
           4
 72
           8
 73
           4
 74
           3
 42
0.00000000001
 43
0.00000000001
 44
0.00000000001
 40
0.0
 40
0.0
 40
0.0
 40
0.0
 40
0.7211812139286837
 40
0.7211812139286837
 40
0.7211812139286837
 40
0.7211812139286837
 10
-10.171149352867969
 20
742.82241040679378
 30
0.0
 10
-10.23025756584266
 20
743.05508856042638
 30
0.0
 10
-10.31769407157867
 20
743.27963315790385
 30
0.0
 10
-10.43153459388118
 20
743.4910804503171
 30
0.0
 11
-10.171149352867969
 21
742.82241040679378
 31
0.0
 11
-10.280817357376643
 21
743.16470700151274
 31
0.0
 11
-10.43153459388118
 21
743.4910804503171
 31
0.0
  0
SPLINE
  5
4B8
100
AcDbEntity
  8
1
  6
CONTINUOUS
 62
           7
100
AcDbSpline
210
0.0
220
0.0
230
1.0
 70
           0
 71
           4
 72
           8
 73
           4
 74
           3
 42
0.00000000001
 43
0.00000000001
 44
0.00000000001
 40
0.0
 40
0.0
 40
0.0
 40
0.0
 40
0.7170841555052078
 40
0.7170841555052078
 40
0.7170841555052078
 40
0.7170841555052078
 10
-10.43153459388118
 20
743.4910804503171
 30
0.0
 10
-10.5438255190157
 20
743.7011227625203
 30
0.0
 10
-10.693457965141731
 20
743.88913246455047
 30
0.0
 10
-10.87322571721079
 20
744.04605511414582
 30
0.0
 11
-10.43153459388118
 21
743.4910804503171
 31
0.0
 11
-10.627076345445531
 21
743.78848765570933
 31
0.0
 11
-10.87322571721079
 21
744.04605511414582
 31
0.0
  0
SPLINE
  5
4B7
100
AcDbEntity
  8
1
  6
CONTINUOUS
 62
           7
100
AcDbSpline
210
0.0
220
0.0
230
1.0
 70
           0
 71
           4
 72
          10
 73
           6
 74
           7
 42
0.00000000001
 43
0.00000000001
 44
0.00000000001
 40
0.0
 40
0.0
 40
0.0
 40
0.0
 40
0.2453923349784285
 40
0.4903691918350707
 40
0.7366339261766079
 40
0.7366339261766079
 40
0.7366339261766079
 40
0.7366339261766079
 10
-10.87322571721079
 20
744.04605511414582
 30
0.0
 10
-10.965960695056481
 20
744.12560078574359
 30
0.0
 10
-11.07174026702798
 20
744.18878804450731
 30
0.0
 10
-11.300281897693379
 20
744.27700586270839
 30
0.0
 10
-11.421369874687199
 20
744.30139022112644
 30
0.0
 10
-11.54406270228373
 20
744.30500038822686
 30
0.0
 11
-10.87322571721079
 21
744.04605511414582
 31
0.0
 11
-10.988904093447337
 21
744.13528066359947
 31
0.0
 11
-11.083439065308763
 21
744.1877242864565
 31
0.0
 11
-11.186348351706618
 21
744.23163473253453
 31
0.0
 11
-11.292093243280606
 21
744.26828528262592
 31
0.0
 11
-11.397783380948772
 21
744.29311932100813
 31
0.0
 11
-11.54406270228373
 21
744.30500038822686
 31
0.0
  0
SPLINE
  5
4B6
100
AcDbEntity
  8
1
  6
CONTINUOUS
 62
           7
100
AcDbSpline
210
0.0
220
0.0
230
1.0
 70
           0
 71
           4
 72
          10
 73
           6
 74
           7
 42
0.00000000001
 43
0.00000000001
 44
0.00000000001
 40
0.0
 40
0.0
 40
0.0
 40
0.0
 40
0.2761522908130869
 40
0.5518867123937046
 40
0.8280592852373641
 40
0.8280592852373641
 40
0.8280592852373641
 40
0.8280592852373641
 10
-11.54406270228373
 20
744.30500038822686
 30
0.0
 10
-11.681796891002479
 20
744.30072206626312
 30
0.0
 10
-11.81857254753147
 20
744.27989888951822
 30
0.0
 10
-12.08423955365744
 20
744.20607129914401
 30
0.0
 10
-12.21215480175151
 20
744.1533381394521
 30
0.0
 10
-12.33236145436145
 20
744.08593593528906
 30
0.0
 11
-11.54406270228373
 21
744.30500038822686
 31
0.0
 11
-11.708615738264429
 21
744.29385641834631
 31
0.0
 11
-11.828763030439456
 21
744.27277697594945
 31
0.0
 11
-11.95112623810488
 21
744.24199038551956
 31
0.0
 11
-12.071830092139237
 21
744.20523011734292
 31
0.0
 11
-12.185636894959041
 21
744.16129467813278
 31
0.0
 11
-12.33236145436145
 21
744.08593593528906
 31
0.0
  0
SPLINE
  5
4B5
100
AcDbEntity
  8
1
  6
CONTINUOUS
 62
           7
100
AcDbSpline
210
0.0
220
0.0
230
1.0
 70
           0
 71
           4
 72
           8
 73
           4
 74
           3
 42
0.00000000001
 43
0.00000000001
 44
0.00000000001
 40
0.0
 40
0.0
 40
0.0
 40
0.0
 40
0.3554193216717161
 40
0.3554193216717161
 40
0.3554193216717161
 40
0.3554193216717161
 10
-12.33236145436145
 20
744.08593593528906
 30
0.0
 10
-12.43511786714741
 20
744.02725583179301
 30
0.0
 10
-12.52822740532058
 20
743.95323326426296
 30
0.0
 10
-12.60841314797673
 20
743.86647340188028
 30
0.0
 11
-12.33236145436145
 21
744.08593593528906
 31
0.0
 11
-12.478851302467767
 21
743.98673457816699
 31
0.0
 11
-12.60841314797673
 21
743.86647340188028
 31
0.0
  0
SPLINE
  5
4B4
100
AcDbEntity
  8
1
  6
CONTINUOUS
 62
           7
100
AcDbSpline
210
0.0
220
0.0
230
1.0
 70
           0
 71
           4
 72
          10
 73
           6
 74
           7
 42
0.00000000001
 43
0.00000000001
 44
0.00000000001
 40
0.0
 40
0.0
 40
0.0
 40
0.0
 40
0.1821823386263298
 40
0.3638327712264296
 40
0.5455508034919034
 40
0.5455508034919034
 40
0.5455508034919034
 40
0.5455508034919034
 10
-12.60841314797673
 20
743.86647340188028
 30
0.0
 10
-12.66740688213569
 20
743.7972119174251
 30
0.0
 10
-12.718243817583881
 20
743.72149257421859
 30
0.0
 10
-12.801613195114539
 20
743.5601035208291
 30
0.0
 10
-12.83387097447927
 20
743.47496551134066
 30
0.0
 10
-12.85607019855985
 20
743.38705112305968
 30
0.0
 11
-12.60841314797673
 21
743.86647340188028
 31
0.0
 11
-12.676091707858435
 21
743.78117253211633
 31
0.0
 11
-12.719512337169622
 21
743.71338041237163
 31
0.0
 11
-12.759385437636544
 21
743.64043339837622
 31
0.0
 11
-12.795787264264225
 21
743.56571055357904
 31
0.0
 11
-12.825835954872954
 21
743.49128568962931
 31
0.0
 11
-12.85607019855985
 21
743.38705112305968
 31
0.0
  0
SPLINE
  5
4B3
100
AcDbEntity
  8
1
  6
CONTINUOUS
 62
           7
100
AcDbSpline
210
0.0
220
0.0
230
1.0
 70
           0
 71
           4
 72
           8
 73
           4
 74
           3
 42
0.00000000001
 43
0.00000000001
 44
0.00000000001
 40
0.0
 40
0.0
 40
0.0
 40
0.0
 40
0.5914864055323632
 40
0.5914864055323632
 40
0.5914864055323632
 40
0.5914864055323632
 10
-12.85607019855985
 20
743.38705112305968
 30
0.0
 10
-12.90845589231937
 20
743.19719522504784
 30
0.0
 10
-12.931321858095981
 20
743.00061068723016
 30
0.0
 10
-12.923873847576269
 20
742.8041258649007
 30
0.0
 11
-12.85607019855985
 21
743.38705112305968
 31
0.0
 11
-12.912409662172772
 21
743.0980743405994
 31
0.0
 11
-12.923873847576269
 21
742.8041258649007
 31
0.0
  0
SPLINE
  5
4B2
100
AcDbEntity
  8
1
  6
CONTINUOUS
 62
           7
100
AcDbSpline
210
0.0
220
0.0
230
1.0
 70
           0
 71
           4
 72
           8
 73
           4
 74
           3
 42
0.00000000001
 43
0.00000000001
 44
0.00000000001
 40
0.0
 40
0.0
 40
0.0
 40
0.0
 40
0.6274222355935929
 40
0.6274222355935929
 40
0.6274222355935929
 40
0.6274222355935929
 10
-12.923873847576269
 20
742.8041258649007
 30
0.0
 10
-12.918332749689711
 20
742.5950515535875
 30
0.0
 10
-12.91000333123638
 20
742.38607078333496
 30
0.0
 10
-12.898887785713971
 20
742.17723858792203
 30
0.0
 11
-12.923873847576269
 21
742.8041258649007
 31
0.0
 11
-12.913471234508563
 21
742.4905914329488
 31
0.0
 11
-12.898887785713971
 21
742.17723858792203
 31
0.0
  0
SPLINE
  5
4B1
100
AcDbEntity
  8
1
  6
CONTINUOUS
 62
           7
100
AcDbSpline
210
0.0
220
0.0
230
1.0
 70
           0
 71
           4
 72
           8
 73
           4
 74
           3
 42
0.00000000001
 43
0.00000000001
 44
0.00000000001
 40
0.0
 40
0.0
 40
0.0
 40
0.0
 40
0.5063676213004726
 40
0.5063676213004726
 40
0.5063676213004726
 40
0.5063676213004726
 10
-12.90167565269266
 20
741.6720256349297
 30
0.0
 10
-12.886849514474109
 20
741.84012800531605
 30
0.0
 10
-12.885917100931341
 20
742.00909854900306
 30
0.0
 10
-12.898887785713971
 20
742.17723858792203
 30
0.0
 11
-12.90167565269266
 21
741.6720256349297
 31
0.0
 11
-12.889857910577872
 21
741.92461798572617
 31
0.0
 11
-12.898887785713971
 21
742.17723858792203
 31
0.0
  0
SPLINE
  5
4B0
100
AcDbEntity
  8
1
  6
CONTINUOUS
 62
           7
100
AcDbSpline
210
0.0
220
0.0
230
1.0
 70
           0
 71
           4
 72
          10
 73
           6
 74
           7
 42
0.00000000001
 43
0.00000000001
 44
0.00000000001
 40
0.0
 40
0.0
 40
0.0
 40
0.0
 40
0.1014752105539224
 40
0.2024201819926552
 40
0.3035529003011629
 40
0.3035529003011629
 40
0.3035529003011629
 40
0.3035529003011629
 10
-12.99959105068085
 20
741.39194341712164
 30
0.0
 10
-12.968328304285119
 20
741.4317271644037
 30
0.0
 10
-12.94387466690057
 20
741.47634288139295
 30
0.0
 10
-12.91056181891598
 20
741.57163265743384
 30
0.0
 10
-12.901931378033339
 20
741.62165233186204
 30
0.0
 10
-12.90167565269266
 20
741.6720256349297
 30
0.0
 11
-12.99959105068085
 21
741.39194341712164
 31
0.0
 11
-12.964644717044999
 21
741.4413277009412
 31
0.0
 11
-12.944373400400007
 21
741.48121632237905
 31
0.0
 11
-12.927691597760292
 21
741.52421144359005
 31
0.0
 11
-12.913962682754475
 21
741.56822606961225
 31
0.0
 11
-12.905023036570011
 21
741.61188330943207
 31
0.0
 11
-12.90167565269266
 21
741.6720256349297
 31
0.0
  0
SPLINE
  5
4AF
100
AcDbEntity
  8
1
  6
CONTINUOUS
 62
           7
100
AcDbSpline
210
0.0
220
0.0
230
1.0
 70
           0
 71
           4
 72
          12
 73
           8
 74
          11
 42
0.00000000001
 43
0.00000000001
 44
0.00000000001
 40
0.0
 40
0.0
 40
0.0
 40
0.0
 40
0.081338956735915
 40
0.162361365330968
 40
0.2033380778124947
 40
0.2843632483706782
 40
0.3657079752388277
 40
0.3657079752388277
 40
0.3657079752388277
 40
0.3657079752388277
 10
-13.32594513501718
 20
741.29835628055275
 30
0.0
 10
-13.28799599813434
 20
741.28445294905873
 30
0.0
 10
-13.24747671141175
 20
741.27871802104289
 30
0.0
 10
-13.16664975810434
 20
741.28434246000029
 30
0.0
 10
-13.127260625320149
 20
741.29563790971702
 30
0.0
 10
-13.05573369287662
 20
741.33370332970946
 30
0.0
 10
-13.02440873970599
 20
741.36004071687728
 30
0.0
 10
-12.99959105068085
 20
741.39194341712164
 30
0.0
 11
-13.32594513501718
 21
741.29835628055275
 31
0.0
 11
-13.279299139859315
 21
741.2847160139637
 31
0.0
 11
-13.241369422890379
 21
741.2812733004979
 31
0.0
 11
-13.199662233772413
 21
741.28259494210931
 31
0.0
 11
-13.161681055136601
 21
741.28695547006828
 31
0.0
 11
-13.147034176318813
 21
741.29026456439408
 31
0.0
 11
-13.132859597579118
 21
741.29522039692642
 31
0.0
 11
-13.098338577444874
 21
741.31165090253046
 31
0.0
 11
-13.062267861706864
 21
741.3326331474226
 31
0.0
 11
-13.031923906901975
 21
741.35565462926047
 31
0.0
 11
-12.99959105068085
 21
741.39194341712164
 31
0.0
  0
SPLINE
  5
4AE
100
AcDbEntity
  8
1
  6
CONTINUOUS
 62
           7
100
AcDbSpline
210
0.0
220
0.0
230
1.0
 70
           0
 71
           4
 72
          10
 73
           6
 74
           7
 42
0.00000000001
 43
0.00000000001
 44
0.00000000001
 40
0.0
 40
0.0
 40
0.0
 40
0.0
 40
0.1308411321916542
 40
0.2613536601709618
 40
0.3924601241542532
 40
0.3924601241542532
 40
0.3924601241542532
 40
0.3924601241542532
 10
-6.9214906767351749
 20
720.29987577931206
 30
0.0
 10
-6.9036037643082722
 20
720.23716764736685
 30
0.0
 10
-6.8757694280572252
 20
720.17773038220969
 30
0.0
 10
-6.8022971210343712
 20
720.06986314872199
 30
0.0
 10
-6.7571275765743479
 20
720.02212089325383
 30
0.0
 10
-6.7052214508836556
 20
719.98236345356531
 30
0.0
 11
-6.9214906767351749
 21
720.29987577931206
 31
0.0
 11
-6.8964696288365142
 21
720.22602033084092
 31
0.0
 11
-6.8704477673301412
 21
720.1745489781124
 31
0.0
 11
-6.8385190547215124
 21
720.12419852534344
 31
0.0
 11
-6.803356005182982
 21
720.07603985338574
 31
0.0
 11
-6.7649063812839465
 21
720.03286307859059
 31
0.0
 11
-6.7052214508836556
 21
719.98236345356531
 31
0.0
  0
SPLINE
  5
4AD
100
AcDbEntity
  8
1
  6
CONTINUOUS
 62
           7
100
AcDbSpline
210
0.0
220
0.0
230
1.0
 70
           0
 71
           4
 72
           8
 73
           4
 74
           3
 42
0.00000000001
 43
0.00000000001
 44
0.00000000001
 40
0.0
 40
0.0
 40
0.0
 40
0.0
 40
0.3712543892940859
 40
0.3712543892940859
 40
0.3712543892940859
 40
0.3712543892940859
 10
-6.7052214508836556
 20
719.98236345356531
 30
0.0
 10
-6.6059396314873879
 20
719.90938350287206
 30
0.0
 10
-6.4936695575739094
 20
719.8556338232446
 30
0.0
 10
-6.37424956935034
 20
719.82390953990671
 30
0.0
 11
-6.7052214508836547
 21
719.98236345356531
 31
0.0
 11
-6.5472873234272342
 21
719.88766562147759
 31
0.0
 11
-6.37424956935034
 21
719.82390953990671
 31
0.0
  0
SPLINE
  5
4AC
100
AcDbEntity
  8
1
  6
CONTINUOUS
 62
           7
100
AcDbSpline
210
0.0
220
0.0
230
1.0
 70
           0
 71
           4
 72
           8
 73
           4
 74
           3
 42
0.00000000001
 43
0.00000000001
 44
0.00000000001
 40
0.0
 40
0.0
 40
0.0
 40
0.0
 40
1.0438349935687408
 40
1.0438349935687408
 40
1.0438349935687408
 40
1.0438349935687408
 10
-8.3885563386705684
 20
718.13407043603024
 30
0.0
 10
-8.1165431022656094
 20
717.91890424057453
 30
0.0
 10
-7.8119998712056571
 20
717.74770237785128
 30
0.0
 10
-7.4860809335170018
 20
717.62673533655561
 30
0.0
 11
-8.3885563386705684
 21
718.13407043603024
 31
0.0
 11
-7.9575332740751712
 21
717.8450782034829
 31
0.0
 11
-7.4860809335170018
 21
717.62673533655561
 31
0.0
  0
SPLINE
  5
4AB
100
AcDbEntity
  8
1
  6
CONTINUOUS
 62
           7
100
AcDbSpline
210
0.0
220
0.0
230
1.0
 70
           0
 71
           4
 72
          10
 73
           6
 74
           7
 42
0.00000000001
 43
0.00000000001
 44
0.00000000001
 40
0.0
 40
0.0
 40
0.0
 40
0.0
 40
0.3696586985747444
 40
0.7387605761757921
 40
1.1091150635850204
 40
1.1091150635850204
 40
1.1091150635850204
 40
1.1091150635850204
 10
-9.0322211729351665
 20
719.01708697643232
 30
0.0
 10
-8.9668732837427569
 20
718.84466018560852
 30
0.0
 10
-8.8786528087933618
 20
718.6817492963911
 30
0.0
 10
-8.661217561849071
 20
718.38349083559763
 30
0.0
 10
-8.532967546914378
 20
718.24946663251546
 30
0.0
 10
-8.3885563386705684
 20
718.13407043603024
 30
0.0
 11
-9.0322211729351665
 21
719.01708697643232
 31
0.0
 11
-8.9456803921617656
 21
718.81414653011814
 31
0.0
 11
-8.8644127150524383
 21
718.67267466925864
 31
0.0
 11
-8.7687576248985319
 21
718.53361700236906
 31
0.0
 11
-8.6656279567303045
 21
718.39997962809093
 31
0.0
 11
-8.5555863093701561
 21
718.27902833892222
 31
0.0
 11
-8.3885563386705684
 21
718.13407043603024
 31
0.0
  0
SPLINE
  5
4AA
100
AcDbEntity
  8
1
  6
CONTINUOUS
 62
           7
100
AcDbSpline
210
0.0
220
0.0
230
1.0
 70
           0
 71
           3
 72
           6
 73
           3
 74
           3
 42
0.00000000001
 43
0.00000000001
 44
0.00000000001
 40
13.304764967434791
 40
13.304764967434791
 40
13.304764967434791
 40
13.402235883419454
 40
13.402235883419454
 40
13.402235883419454
 10
-138.08595479798231
 20
684.67122543405253
 30
0.0
 10
-138.042423342973
 20
684.69304608032485
 30
0.0
 10
-137.9989182313634
 20
684.71510215013711
 30
0.0
 11
-138.08595479798231
 21
684.67122543405253
 31
0.0
 11
-138.04242992882294
 21
684.69310493620981
 31
0.0
 11
-137.9989182313634
 21
684.71510215013711
 31
0.0
  0
SPLINE
  5
4A9
100
AcDbEntity
  8
1
  6
CONTINUOUS
 62
           7
100
AcDbSpline
210
0.0
220
0.0
230
1.0
 70
           0
 71
           3
 72
           6
 73
           3
 74
           3
 42
0.00000000001
 43
0.00000000001
 44
0.00000000001
 40
0.0
 40
0.0
 40
0.0
 40
0.0837041206901809
 40
0.0837041206901809
 40
0.0837041206901809
 10
-151.08676933796039
 20
683.2477360595102
 30
0.0
 10
-151.04614742612151
 20
683.23753798352823
 30
0.0
 10
-151.00554494257861
 20
683.22751353274361
 30
0.0
 11
-151.08676933796039
 21
683.2477360595102
 31
0.0
 11
-151.04615228319551
 21
683.2375813898276
 31
0.0
 11
-151.00554494257861
 21
683.22751353274361
 31
0.0
  0
CIRCLE
  5
4A8
100
AcDbEntity
  8
1
  6
CONTINUOUS
 62
           7
100
AcDbCircle
 10
-53.443146115456
 20
805.449570121332
 40
2.05
  0
CIRCLE
  5
4A7
100
AcDbEntity
  8
1
  6
CONTINUOUS
 62
           7
100
AcDbCircle
 10
-154.766820405705
 20
776.100763364082
 40
8.0
  0
CIRCLE
  5
4A6
100
AcDbEntity
  8
1
  6
CONTINUOUS
 62
           7
100
AcDbCircle
 10
-154.766820405705
 20
776.100763364082
 40
10.5
  0
CIRCLE
  5
4A5
100
AcDbEntity
  8
1
  6
CONTINUOUS
 62
           3
100
AcDbCircle
 10
-154.766820405705
 20
776.100763364082
 40
0.412536333254
  0
CIRCLE
  5
4A4
100
AcDbEntity
  8
1
  6
CONTINUOUS
 62
           3
100
AcDbCircle
 10
-154.766820405705
 20
776.100763364082
 40
0.5
  0
CIRCLE
  5
4A3
100
AcDbEntity
  8
1
  6
CONTINUOUS
 62
           3
100
AcDbCircle
 10
-154.766820405705
 20
776.100763364082
 40
0.9
  0
CIRCLE
  5
4A2
100
AcDbEntity
  8
1
  6
CONTINUOUS
 62
           3
100
AcDbCircle
 10
-154.766820405705
 20
776.100763364082
 40
1.1
  0
CIRCLE
  5
4A1
100
AcDbEntity
  8
1
  6
CONTINUOUS
 62
           7
100
AcDbCircle
 10
-154.766820405705
 20
776.100763364082
 40
1.75
  0
ARC
  5
4A0
100
AcDbEntity
  8
1
  6
PHANTOM
 62
           2
100
AcDbCircle
 10
-53.443146115456
 20
805.449570121332
 40
4.0
100
AcDbArc
 50
-0.417005653216
 51
179.582994346781
  0
ARC
  5
49F
100
AcDbEntity
  8
1
  6
PHANTOM
 62
           2
100
AcDbCircle
 10
-51.443636426722
 20
805.374925327045
 40
2.000902506542
100
AcDbArc
 50
-5.579830894002
 51
1.303936093671
  0
ARC
  5
49E
100
AcDbEntity
  8
1
  6
CONTINUOUS
 62
           7
100
AcDbCircle
 10
-59.139507995317
 20
778.490314543077
 40
2.0
100
AcDbArc
 50
114.809122356367
 51
179.582994346784
  0
ARC
  5
49D
100
AcDbEntity
  8
1
  6
CONTINUOUS
 62
           7
100
AcDbCircle
 10
-59.139507995317
 20
778.490314543077
 40
2.0
100
AcDbArc
 50
179.582994346784
 51
-120.417005653216
  0
ARC
  5
49C
100
AcDbEntity
  8
1
  6
CONTINUOUS
 62
           7
100
AcDbCircle
 10
-82.64269113564
 20
758.579861691839
 40
30.0
100
AcDbArc
 50
-50.232205392184
 51
-6.000752718737
  0
ARC
  5
49B
100
AcDbEntity
  8
1
  6
CONTINUOUS
 62
           7
100
AcDbCircle
 10
-82.64269113564
 20
758.579861691839
 40
28.2
100
AcDbArc
 50
-50.232205392184
 51
-35.695496531595
  0
ARC
  5
49A
100
AcDbEntity
  8
1
  6
CONTINUOUS
 62
           7
100
AcDbCircle
 10
11.24536356039
 20
698.635201419516
 40
3.32256957295
100
AcDbArc
 50
71.944905339929
 51
140.713400276004
  0
ARC
  5
499
100
AcDbEntity
  8
1
  6
CONTINUOUS
 62
           7
100
AcDbCircle
 10
2.541939611183
 20
708.320901218829
 40
12.419443416399
100
AcDbArc
 50
-73.670847192031
 51
-56.082893418036
  0
ARC
  5
498
100
AcDbEntity
  8
1
  6
CONTINUOUS
 62
           7
100
AcDbCircle
 10
10.501669375253
 20
701.173641897481
 40
3.322569572951
100
AcDbArc
 50
-108.055094660064
 51
-39.286599723999
  0
ARC
  5
497
100
AcDbEntity
  8
1
  6
CONTINUOUS
 62
           7
100
AcDbCircle
 10
8.400897536444
 20
688.322605879971
 40
12.4194434164
100
AcDbArc
 50
88.741199033975
 51
106.329152807968
  0
ARC
  5
496
100
AcDbEntity
  8
1
  6
CONTINUOUS
 62
           7
100
AcDbCircle
 10
0.441167772374
 20
695.46986520132
 40
3.322569572951
100
AcDbArc
 50
71.944905339933
 51
140.713400276003
  0
ARC
  5
495
100
AcDbEntity
  8
1
  6
CONTINUOUS
 62
           7
100
AcDbCircle
 10
8.400897536444
 20
688.322605879971
 40
12.4194434164
100
AcDbArc
 50
106.329152807968
 51
123.917106581961
  0
ARC
  5
494
100
AcDbEntity
  8
1
  6
CONTINUOUS
 62
           7
100
AcDbCircle
 10
0.441167772374
 20
695.46986520132
 40
3.322569572951
100
AcDbArc
 50
71.944905339933
 51
140.713400276003
  0
ARC
  5
493
100
AcDbEntity
  8
1
  6
CONTINUOUS
 62
           7
100
AcDbCircle
 10
-0.302526412763
 20
698.008305679285
 40
3.32256957295
100
AcDbArc
 50
-108.055094660074
 51
-39.286599723997
  0
ARC
  5
492
100
AcDbEntity
  8
1
  6
CONTINUOUS
 62
           7
100
AcDbCircle
 10
2.541939611183
 20
708.320901218829
 40
12.419443416399
100
AcDbArc
 50
-91.258800966025
 51
-73.670847192031
  0
ARC
  5
491
100
AcDbEntity
  8
1
  6
CONTINUOUS
 62
           7
100
AcDbCircle
 10
-8.014510054417
 20
705.655440807054
 40
3.206062139251
100
AcDbArc
 50
-110.551340303592
 51
-82.358935240068
  0
ARC
  5
490
100
AcDbEntity
  8
1
  6
CONTINUOUS
 62
           7
100
AcDbCircle
 10
-7.764737647216
 20
703.40353623436
 40
3.206062139251
100
AcDbArc
 50
69.448659696408
 51
123.209645919528
  0
ARC
  5
48F
100
AcDbEntity
  8
1
  6
CONTINUOUS
 62
           7
100
AcDbCircle
 10
-12.416679025799
 20
694.088844498513
 40
11.951150572225
100
AcDbArc
 50
82.50040926366
 51
96.329152807968
  0
ARC
  5
48E
100
AcDbEntity
  8
1
  6
CONTINUOUS
 62
           7
100
AcDbCircle
 10
-21.921970691042
 20
744.858456345874
 40
43.872592295283
100
AcDbArc
 50
-78.635759272059
 51
-74.877191567705
  0
ARC
  5
48D
100
AcDbEntity
  8
1
  6
CONTINUOUS
 62
           7
100
AcDbCircle
 10
-14.26788255391
 20
745.707417728219
 40
43.872592295283
100
AcDbArc
 50
-92.464502816358
 51
-88.705935112005
  0
ARC
  5
48C
100
AcDbEntity
  8
1
  6
CONTINUOUS
 62
           7
100
AcDbCircle
 10
-12.416679025799
 20
694.088844498513
 40
11.951150572225
100
AcDbArc
 50
96.329152807968
 51
110.157896352273
  0
ARC
  5
48B
100
AcDbEntity
  8
1
  6
CONTINUOUS
 62
           7
100
AcDbCircle
 10
-18.996738142376
 20
702.157726871307
 40
3.206062139251
100
AcDbArc
 50
69.448659696408
 51
123.209645919528
  0
ARC
  5
48A
100
AcDbEntity
  8
1
  6
CONTINUOUS
 62
           7
100
AcDbCircle
 10
-19.246510549577
 20
704.409631444001
 40
3.206062139251
100
AcDbArc
 50
-84.982759143995
 51
-56.790354080472
  0
ARC
  5
489
100
AcDbEntity
  8
1
  6
CONTINUOUS
 62
           7
100
AcDbCircle
 10
-200.093959256649
 20
253.228276565273
 40
553.304424158662
100
AcDbArc
 50
76.028711619761
 51
77.91729908069
  0
ARC
  5
488
100
AcDbEntity
  8
1
  6
CONTINUOUS
 62
           7
100
AcDbCircle
 10
-18.883487094314
 20
777.849437121866
 40
7.118985732063
100
AcDbArc
 50
58.998670828221
 51
98.149445162916
  0
ARC
  5
487
100
AcDbEntity
  8
1
  6
CONTINUOUS
 62
           7
100
AcDbCircle
 10
-29.778740540351
 20
780.393699412665
 40
3.394182505519
100
AcDbArc
 50
92.240764524916
 51
176.713160651206
  0
ARC
  5
486
100
AcDbEntity
  8
1
  6
CONTINUOUS
 62
           7
100
AcDbCircle
 10
-62.828378863786
 20
812.960722247315
 40
4.5
100
AcDbArc
 50
6.329152807967
 51
96.329152807968
  0
ARC
  5
485
100
AcDbEntity
  8
1
  6
CONTINUOUS
 62
           7
100
AcDbCircle
 10
70.487351365445
 20
425.835357201585
 40
400.000000000028
100
AcDbArc
 50
106.077213110573
 51
107.514636618434
  0
ARC
  5
484
100
AcDbEntity
  8
1
  6
CONTINUOUS
 62
           7
100
AcDbCircle
 10
-62.828378863786
 20
812.960722247315
 40
4.5
100
AcDbArc
 50
96.329152807968
 51
-173.670847192031
  0
ARC
  5
483
100
AcDbEntity
  8
1
  6
CONTINUOUS
 62
           7
100
AcDbCircle
 10
-61.889593889484
 20
813.567914780227
 40
8.5
100
AcDbArc
 50
96.329152807968
 51
-173.670847192031
  0
ARC
  5
482
100
AcDbEntity
  8
1
  6
CONTINUOUS
 62
           7
100
AcDbCircle
 10
-60.67520882366
 20
811.690344831622
 40
10.5
100
AcDbArc
 50
64.741017302767
 51
96.329152807968
  0
ARC
  5
481
100
AcDbEntity
  8
1
  6
CONTINUOUS
 62
           7
100
AcDbCircle
 10
-104.829505290489
 20
733.809877745531
 40
100.000000000005
100
AcDbArc
 50
51.267618151158
 51
60.89920064945
  0
ARC
  5
480
100
AcDbEntity
  8
1
  6
CONTINUOUS
 62
           7
100
AcDbCircle
 10
70.487351365445
 20
425.835357201585
 40
400.000000000028
100
AcDbArc
 50
104.615715374632
 51
105.703952305603
  0
ARC
  5
47F
100
AcDbEntity
  8
1
  6
CONTINUOUS
 62
           7
100
AcDbCircle
 10
-53.443146115456
 20
805.449570121332
 40
4.0
100
AcDbArc
 50
6.329152807962
 51
-173.670847192025
  0
ARC
  5
47E
100
AcDbEntity
  8
1
  6
CONTINUOUS
 62
           7
100
AcDbCircle
 10
-52.671465859195
 20
798.492235173085
 40
3.0
100
AcDbArc
 50
-173.670847192031
 51
6.329152807969
  0
ARC
  5
47D
100
AcDbEntity
  8
1
  6
CONTINUOUS
 62
           7
100
AcDbCircle
 10
-52.671465859195
 20
798.492235173085
 40
2.0
100
AcDbArc
 50
-173.670847192033
 51
6.32915280797
  0
ARC
  5
47C
100
AcDbEntity
  8
1
  6
CONTINUOUS
 62
           7
100
AcDbCircle
 10
70.487351365445
 20
425.835357201585
 40
400.000000000028
100
AcDbArc
 50
108.645910395119
 51
108.989578365309
  0
ARC
  5
47B
100
AcDbEntity
  8
1
  6
CONTINUOUS
 62
           7
100
AcDbCircle
 10
70.487351365445
 20
425.835357201585
 40
400.000000000027
100
AcDbArc
 50
105.703952305603
 51
106.077213110573
  0
ARC
  5
47A
100
AcDbEntity
  8
1
  6
CONTINUOUS
 62
           7
100
AcDbCircle
 10
-28.620362525632
 20
750.950030435066
 40
44.848550400376
100
AcDbArc
 50
99.654338922597
 51
112.597160212487
  0
ARC
  5
479
100
AcDbEntity
  8
1
  6
LONG_DASHED
 62
           2
100
AcDbCircle
 10
-53.443146115456
 20
805.449570121332
 40
3.5
100
AcDbArc
 50
-173.670847192023
 51
-144.715822820163
  0
ARC
  5
478
100
AcDbEntity
  8
1
  6
LONG_DASHED
 62
           2
100
AcDbCircle
 10
-53.443146115456
 20
805.449570121332
 40
3.5
100
AcDbArc
 50
-22.625871563901
 51
-173.670847192023
  0
ARC
  5
477
100
AcDbEntity
  8
1
  6
LONG_DASHED
 62
           2
100
AcDbCircle
 10
-53.443146115456
 20
805.449570121332
 40
1.6
100
AcDbArc
 50
-22.625871563922
 51
-173.670847192015
  0
ARC
  5
476
100
AcDbEntity
  8
1
  6
LONG_DASHED
 62
           2
100
AcDbCircle
 10
-53.443146115456
 20
805.449570121332
 40
1.6
100
AcDbArc
 50
-173.670847192015
 51
-144.715822820144
  0
ARC
  5
475
100
AcDbEntity
  8
1
  6
CONTINUOUS
 62
           7
100
AcDbCircle
 10
-23.217647859648
 20
813.807391178339
 40
5.124811576832
100
AcDbArc
 50
-163.421578949207
 51
-139.572981026094
  0
ARC
  5
474
100
AcDbEntity
  8
1
  6
CONTINUOUS
 62
           7
100
AcDbCircle
 10
-16.163167303032
 20
810.462835883399
 40
10.955674697112
100
AcDbArc
 50
179.889008932965
 51
-164.563872961384
  0
ARC
  5
473
100
AcDbEntity
  8
1
  6
CONTINUOUS
 62
           7
100
AcDbCircle
 10
-27.103825690517
 20
812.668846516628
 40
5.124811576833
100
AcDbArc
 50
-7.768713357671
 51
16.079884565445
  0
ARC
  5
472
100
AcDbEntity
  8
1
  6
CONTINUOUS
 62
           7
100
AcDbCircle
 10
-31.238203894919
 20
806.046259189341
 40
10.955674697112
100
AcDbArc
 50
17.222178577615
 51
32.769296683269
  0
ARC
  5
471
100
AcDbEntity
  8
1
  6
CONTINUOUS
 62
           7
100
AcDbCircle
 10
-31.334218823217
 20
806.373985538894
 40
10.955674697112
100
AcDbArc
 50
-0.110991067187
 51
15.436127038473
  0
ARC
  5
470
100
AcDbEntity
  8
1
  6
CONTINUOUS
 62
           7
100
AcDbCircle
 10
-24.27973826661
 20
803.029430243935
 40
5.124811576833
100
AcDbArc
 50
16.578421050644
 51
40.427018973754
  0
ARC
  5
46F
100
AcDbEntity
  8
1
  6
CONTINUOUS
 62
           7
100
AcDbCircle
 10
-16.259182231318
 20
810.790562232911
 40
10.955674697112
100
AcDbArc
 50
-162.777821422533
 51
-147.230703316882
  0
ARC
  5
46E
100
AcDbEntity
  8
1
  6
CONTINUOUS
 62
           7
100
AcDbCircle
 10
-20.393560435738
 20
804.167974905635
 40
5.124811576833
100
AcDbArc
 50
172.231286642179
 51
-163.920115434701
  0
ARC
  5
46D
100
AcDbEntity
  8
1
  6
CONTINUOUS
 62
           7
100
AcDbCircle
 10
-100.190963778838
 20
731.756016498063
 40
99.999999999997
100
AcDbArc
 50
16.329152807968
 51
27.412253815228
  0
ARC
  5
46C
100
AcDbEntity
  8
1
  6
CONTINUOUS
 62
           7
100
AcDbCircle
 10
-0.536806232293
 20
787.554421913678
 40
1.623171604166
100
AcDbArc
 50
-62.792828914803
 51
-24.837887968298
  0
ARC
  5
46B
100
AcDbEntity
  8
1
  6
CONTINUOUS
 62
           7
100
AcDbCircle
 10
-1.956537996051
 20
784.450246639485
 40
3.936253796096
100
AcDbArc
 50
43.364516954418
 51
94.25929783893
  0
ARC
  5
46A
100
AcDbEntity
  8
1
  6
CONTINUOUS
 62
           7
100
AcDbCircle
 10
-3.520627452336
 20
793.933461880585
 40
3.799442988425
100
AcDbArc
 50
-73.800530550465
 51
-9.723468069945
  0
ARC
  5
469
100
AcDbEntity
  8
1
  6
CONTINUOUS
 62
           7
100
AcDbCircle
 10
-3.288986184135
 20
791.845024503005
 40
3.799442988425
100
AcDbArc
 50
22.381773685887
 51
86.458836166401
  0
ARC
  5
468
100
AcDbEntity
  8
1
  6
CONTINUOUS
 62
           7
100
AcDbCircle
 10
-3.841029249562
 20
801.440491953327
 40
3.936253796095
100
AcDbArc
 50
-81.600992222993
 51
-30.70621133848
  0
ARC
  5
467
100
AcDbEntity
  8
1
  6
CONTINUOUS
 62
           7
100
AcDbCircle
 10
-1.775567789545
 20
798.722880617776
 40
1.623171604166
100
AcDbArc
 50
37.496193584232
 51
75.451134530741
  0
ARC
  5
466
100
AcDbEntity
  8
1
  6
CONTINUOUS
 62
           7
100
AcDbCircle
 10
-0.536806232293
 20
787.554421913678
 40
1.623171604166
100
AcDbArc
 50
-62.792828914803
 51
-24.837887968298
  0
ARC
  5
465
100
AcDbEntity
  8
1
  6
CONTINUOUS
 62
           7
100
AcDbCircle
 10
-1.956537996051
 20
784.450246639485
 40
3.936253796096
100
AcDbArc
 50
43.364516954418
 51
94.25929783893
  0
ARC
  5
464
100
AcDbEntity
  8
1
  6
CONTINUOUS
 62
           7
100
AcDbCircle
 10
-3.520627452336
 20
793.933461880585
 40
3.799442988425
100
AcDbArc
 50
-73.800530550465
 51
-9.723468069945
  0
ARC
  5
463
100
AcDbEntity
  8
1
  6
CONTINUOUS
 62
           7
100
AcDbCircle
 10
-3.288986184135
 20
791.845024503005
 40
3.799442988425
100
AcDbArc
 50
22.381773685887
 51
86.458836166401
  0
ARC
  5
462
100
AcDbEntity
  8
1
  6
CONTINUOUS
 62
           7
100
AcDbCircle
 10
-3.841029249562
 20
801.440491953327
 40
3.936253796095
100
AcDbArc
 50
-81.600992222993
 51
-30.70621133848
  0
ARC
  5
461
100
AcDbEntity
  8
1
  6
CONTINUOUS
 62
           7
100
AcDbCircle
 10
-1.775567789545
 20
798.722880617776
 40
1.623171604166
100
AcDbArc
 50
37.496193584232
 51
75.451134530741
  0
ARC
  5
460
100
AcDbEntity
  8
1
  6
CONTINUOUS
 62
           7
100
AcDbCircle
 10
10.222100802471
 20
798.82766873435
 40
0.5
100
AcDbArc
 50
-83.670847192032
 51
6.329152807973
  0
ARC
  5
45F
100
AcDbEntity
  8
1
  6
CONTINUOUS
 62
           7
100
AcDbCircle
 10
11.192213124627
 20
790.081304799412
 40
0.5
100
AcDbArc
 50
6.329152807973
 51
96.329152807968
  0
ARC
  5
45E
100
AcDbEntity
  8
1
  6
CONTINUOUS
 62
           7
100
AcDbCircle
 10
70.487351365445
 20
425.835357201585
 40
400.000000000029
100
AcDbArc
 50
108.989578365309
 51
112.825665040801
  0
ARC
  5
45D
100
AcDbEntity
  8
1
  6
CONTINUOUS
 62
           7
100
AcDbCircle
 10
-157.026741156183
 20
796.475815712519
 40
15.000000000001
100
AcDbArc
 50
89.484508754715
 51
103.173796861222
  0
ARC
  5
45C
100
AcDbEntity
  8
1
  6
CONTINUOUS
 62
           7
100
AcDbCircle
 10
-154.766820405705
 20
776.100763364082
 40
7.75
100
AcDbArc
 50
96.329152807968
 51
111.284401124612
  0
ARC
  5
45B
100
AcDbEntity
  8
1
  6
CONTINUOUS
 62
           7
100
AcDbCircle
 10
-154.766820405705
 20
776.100763364082
 40
7.75
100
AcDbArc
 50
81.373904491326
 51
96.329152807968
  0
ARC
  5
45A
100
AcDbEntity
  8
1
  6
CONTINUOUS
 62
           7
100
AcDbCircle
 10
-154.766820405705
 20
776.100763364082
 40
7.25
100
AcDbArc
 50
96.329152807969
 51
112.342547231917
  0
ARC
  5
459
100
AcDbEntity
  8
1
  6
CONTINUOUS
 62
           7
100
AcDbCircle
 10
-154.766820405705
 20
776.100763364082
 40
7.25
100
AcDbArc
 50
80.31575838402
 51
96.329152807969
  0
ARC
  5
458
100
AcDbEntity
  8
1
  6
CONTINUOUS
 62
           7
100
AcDbCircle
 10
-154.766820405705
 20
776.100763364082
 40
4.3
100
AcDbArc
 50
96.329152807969
 51
124.046900497577
  0
ARC
  5
457
100
AcDbEntity
  8
1
  6
CONTINUOUS
 62
           7
100
AcDbCircle
 10
-154.766820405705
 20
776.100763364082
 40
4.3
100
AcDbArc
 50
68.611405118361
 51
96.329152807969
  0
ARC
  5
456
100
AcDbEntity
  8
1
  6
CONTINUOUS
 62
           7
100
AcDbCircle
 10
-154.766820405705
 20
776.100763364082
 40
5.7497142846
100
AcDbArc
 50
96.329152807969
 51
108.585362072405
  0
ARC
  5
455
100
AcDbEntity
  8
1
  6
CONTINUOUS
 62
           7
100
AcDbCircle
 10
-154.766820405705
 20
776.100763364082
 40
5.7497142846
100
AcDbArc
 50
84.072943543533
 51
96.329152807969
  0
ARC
  5
454
100
AcDbEntity
  8
1
  6
CONTINUOUS
 62
           7
100
AcDbCircle
 10
-154.766820405705
 20
776.100763364082
 40
7.75
100
AcDbArc
 50
-98.626095508675
 51
-83.670847192031
  0
ARC
  5
453
100
AcDbEntity
  8
1
  6
CONTINUOUS
 62
           7
100
AcDbCircle
 10
-154.766820405705
 20
776.100763364082
 40
7.75
100
AcDbArc
 50
-83.670847192031
 51
-68.715598875388
  0
ARC
  5
452
100
AcDbEntity
  8
1
  6
CONTINUOUS
 62
           7
100
AcDbCircle
 10
-154.766820405705
 20
776.100763364082
 40
7.25
100
AcDbArc
 50
-99.684241615981
 51
-83.670847192032
  0
ARC
  5
451
100
AcDbEntity
  8
1
  6
CONTINUOUS
 62
           7
100
AcDbCircle
 10
-154.766820405705
 20
776.100763364082
 40
7.25
100
AcDbArc
 50
-83.670847192032
 51
-67.657452768083
  0
ARC
  5
450
100
AcDbEntity
  8
1
  6
CONTINUOUS
 62
           7
100
AcDbCircle
 10
-154.766820405705
 20
776.100763364082
 40
4.3
100
AcDbArc
 50
-111.388594881642
 51
-83.670847192032
  0
ARC
  5
44F
100
AcDbEntity
  8
1
  6
CONTINUOUS
 62
           7
100
AcDbCircle
 10
-154.766820405705
 20
776.100763364082
 40
4.3
100
AcDbArc
 50
-83.670847192032
 51
-55.953099502423
  0
ARC
  5
44E
100
AcDbEntity
  8
1
  6
CONTINUOUS
 62
           7
100
AcDbCircle
 10
-154.766820405705
 20
776.100763364082
 40
5.7497142846
100
AcDbArc
 50
-95.927056456468
 51
-83.670847192032
  0
ARC
  5
44D
100
AcDbEntity
  8
1
  6
CONTINUOUS
 62
           7
100
AcDbCircle
 10
-154.766820405705
 20
776.100763364082
 40
5.7497142846
100
AcDbArc
 50
-83.670847192032
 51
-71.414637927596
  0
ARC
  5
44C
100
AcDbEntity
  8
1
  6
CONTINUOUS
 62
           7
100
AcDbCircle
 10
-154.766820405705
 20
776.100763364082
 40
11.0
100
AcDbArc
 50
-173.670847192031
 51
6.329152807969
  0
ARC
  5
44B
100
AcDbEntity
  8
1
  6
CONTINUOUS
 62
           7
100
AcDbCircle
 10
-154.766820405705
 20
776.100763364082
 40
11.0
100
AcDbArc
 50
6.329152807969
 51
96.329152807968
  0
ARC
  5
44A
100
AcDbEntity
  8
1
  6
CONTINUOUS
 62
           7
100
AcDbCircle
 10
-154.766820405705
 20
776.100763364082
 40
11.0
100
AcDbArc
 50
96.329152807968
 51
-173.670847192031
  0
ARC
  5
449
100
AcDbEntity
  8
1
  6
CONTINUOUS
 62
           7
100
AcDbCircle
 10
-144.804277419834
 20
688.316755596307
 40
8.425365305329
100
AcDbArc
 50
-161.040103316061
 51
-160.860915928846
  0
ARC
  5
448
100
AcDbEntity
  8
1
  6
CONTINUOUS
 62
           7
100
AcDbCircle
 10
-150.125938081931
 20
686.469898966324
 40
2.792341995043
100
AcDbArc
 50
-160.860915928848
 51
-160.321580640219
  0
ARC
  5
447
100
AcDbEntity
  8
1
  6
CONTINUOUS
 62
           7
100
AcDbCircle
 10
-151.201413730764
 20
686.085279885841
 40
1.650160000655
100
AcDbArc
 50
-160.321580640222
 51
-159.41332536719
  0
ARC
  5
446
100
AcDbEntity
  8
1
  6
CONTINUOUS
 62
           7
100
AcDbCircle
 10
-151.665267644857
 20
685.911051771755
 40
1.154664400919
100
AcDbArc
 50
-159.413325367185
 51
-158.124329379851
  0
ARC
  5
445
100
AcDbEntity
  8
1
  6
CONTINUOUS
 62
           7
100
AcDbCircle
 10
-151.925420455382
 20
685.806599310544
 40
0.874325674595
100
AcDbArc
 50
-158.124329379852
 51
-156.436919895674
  0
ARC
  5
444
100
AcDbEntity
  8
1
  6
CONTINUOUS
 62
           7
100
AcDbCircle
 10
-152.090698863407
 20
685.734517743057
 40
0.694012878236
100
AcDbArc
 50
-156.436919895724
 51
-154.33248002086
  0
ARC
  5
443
100
AcDbEntity
  8
1
  6
CONTINUOUS
 62
           7
100
AcDbCircle
 10
-152.204003966659
 20
685.680066765608
 40
0.568303072063
100
AcDbArc
 50
-154.332480020853
 51
-151.790064284586
  0
ARC
  5
442
100
AcDbEntity
  8
1
  6
CONTINUOUS
 62
           7
100
AcDbCircle
 10
-152.284396623054
 20
685.636942650721
 40
0.477074411616
100
AcDbArc
 50
-151.790064284524
 51
-148.793295372157
  0
ARC
  5
441
100
AcDbEntity
  8
1
  6
CONTINUOUS
 62
           7
100
AcDbCircle
 10
-152.342462778401
 20
685.601767249449
 40
0.409184889218
100
AcDbArc
 50
-148.793295372169
 51
-145.331507073012
  0
ARC
  5
440
100
AcDbEntity
  8
1
  6
CONTINUOUS
 62
           7
100
AcDbCircle
 10
-152.383921835365
 20
685.573093353981
 40
0.35877610342
100
AcDbArc
 50
-145.331507072982
 51
-141.409371435839
  0
ARC
  5
43F
100
AcDbEntity
  8
1
  6
CONTINUOUS
 62
           7
100
AcDbCircle
 10
-152.394028558573
 20
685.56502796902
 40
0.345845663034
100
AcDbArc
 50
-141.409371435924
 51
-135.06987227638
  0
ARC
  5
43E
100
AcDbEntity
  8
1
  6
CONTINUOUS
 62
           7
100
AcDbCircle
 10
-152.34449357222
 20
685.614442286511
 40
0.415813438803
100
AcDbArc
 50
-135.069872276295
 51
-129.767247234685
  0
ARC
  5
43D
100
AcDbEntity
  8
1
  6
CONTINUOUS
 62
           7
100
AcDbCircle
 10
-152.319664420689
 20
685.644277823598
 40
0.454628977432
100
AcDbArc
 50
-129.767247234709
 51
-124.857766289223
  0
ARC
  5
43C
100
AcDbEntity
  8
1
  6
CONTINUOUS
 62
           7
100
AcDbCircle
 10
-152.243243004863
 20
685.753997619266
 40
0.588340107703
100
AcDbArc
 50
-124.85776628918
 51
-121.005390412748
  0
ARC
  5
43B
100
AcDbEntity
  8
1
  6
CONTINUOUS
 62
           7
100
AcDbCircle
 10
-152.209297764787
 20
685.810479948477
 40
0.654238004762
100
AcDbArc
 50
-121.00539041278
 51
-117.485315321937
  0
ARC
  5
43A
100
AcDbEntity
  8
1
  6
CONTINUOUS
 62
           7
100
AcDbCircle
 10
-152.090461771917
 20
686.038904686647
 40
0.911725585452
100
AcDbArc
 50
-117.485315321932
 51
-114.922754474946
  0
ARC
  5
439
100
AcDbEntity
  8
1
  6
CONTINUOUS
 62
           7
100
AcDbCircle
 10
-152.048805838772
 20
686.128551470599
 40
1.010577811725
100
AcDbArc
 50
-114.922754474952
 51
-112.584300226673
  0
ARC
  5
438
100
AcDbEntity
  8
1
  6
CONTINUOUS
 62
           7
100
AcDbCircle
 10
-151.818900817315
 20
686.681289660735
 40
1.609222803123
100
AcDbArc
 50
-112.584300226663
 51
-111.105054024284
  0
ARC
  5
437
100
AcDbEntity
  8
1
  6
CONTINUOUS
 62
           7
100
AcDbCircle
 10
-151.753937300263
 20
686.849602343645
 40
1.789637375085
100
AcDbArc
 50
-111.105054024291
 51
-109.771745264666
  0
ARC
  5
436
100
AcDbEntity
  8
1
  6
CONTINUOUS
 62
           7
100
AcDbCircle
 10
-150.831433300205
 20
689.415925905353
 40
4.516729279201
100
AcDbArc
 50
-109.771745264667
 51
-109.24510568581
  0
ARC
  5
435
100
AcDbEntity
  8
1
  6
CONTINUOUS
 62
           7
100
AcDbCircle
 10
-150.781755892973
 20
689.558219203102
 40
4.667444996277
100
AcDbArc
 50
-109.245105685809
 51
-107.749752427998
  0
ARC
  5
434
100
AcDbEntity
  8
1
  6
CONTINUOUS
 62
           7
100
AcDbCircle
 10
-150.724814342894
 20
689.736107202311
 40
4.854224225283
100
AcDbArc
 50
-107.749752427997
 51
-105.645692975797
  0
ARC
  5
433
100
AcDbEntity
  8
1
  6
CONTINUOUS
 62
           7
100
AcDbCircle
 10
-150.81672859784
 20
689.407918040695
 40
4.513407036655
100
AcDbArc
 50
-105.645692975801
 51
-101.938989088448
  0
ARC
  5
432
100
AcDbEntity
  8
1
  6
CONTINUOUS
 62
           7
100
AcDbCircle
 10
-150.450317215674
 20
691.140819524574
 40
6.284622679599
100
AcDbArc
 50
-101.938989088446
 51
-101.229064868011
  0
ARC
  5
431
100
AcDbEntity
  8
1
  6
CONTINUOUS
 62
           7
100
AcDbCircle
 10
-150.77765652328
 20
689.492025380254
 40
4.603648809294
100
AcDbArc
 50
-101.229064868013
 51
-100.256289600682
  0
ARC
  5
430
100
AcDbEntity
  8
1
  6
CONTINUOUS
 62
           7
100
AcDbCircle
 10
-150.228433170971
 20
692.527367383388
 40
7.688279640805
100
AcDbArc
 50
-100.256289600682
 51
-99.671879971399
  0
ARC
  5
42F
100
AcDbEntity
  8
1
  6
CONTINUOUS
 62
           7
100
AcDbCircle
 10
-150.630349089698
 20
690.169094030834
 40
5.296002564233
100
AcDbArc
 50
-99.671879971398
 51
-98.821068600197
  0
ARC
  5
42E
100
AcDbEntity
  8
1
  6
CONTINUOUS
 62
           7
100
AcDbCircle
 10
-149.955411971697
 20
694.518343599208
 40
9.697310542694
100
AcDbArc
 50
-98.821068600198
 51
-98.35532908723
  0
ARC
  5
42D
100
AcDbEntity
  8
1
  6
CONTINUOUS
 62
           7
100
AcDbCircle
 10
-150.470198006372
 20
691.013312137129
 40
6.154677311373
100
AcDbArc
 50
-98.35532908723
 51
-97.620178809809
  0
ARC
  5
42C
100
AcDbEntity
  8
1
  6
CONTINUOUS
 62
           7
100
AcDbCircle
 10
-149.583480930372
 20
697.641140958169
 40
12.841558651271
100
AcDbArc
 50
-97.620178809807
 51
-97.26739872258
  0
ARC
  5
42B
100
AcDbEntity
  8
1
  6
CONTINUOUS
 62
           7
100
AcDbCircle
 10
-150.28976686923
 20
692.102714570068
 40
7.258279446014
100
AcDbArc
 50
-97.26739872258
 51
-96.642832190548
  0
ARC
  5
42A
100
AcDbEntity
  8
1
  6
CONTINUOUS
 62
           7
100
AcDbCircle
 10
-148.98209671791
 20
703.331053616642
 40
18.56250869747
100
AcDbArc
 50
-96.642832190548
 51
-96.398601960823
  0
ARC
  5
429
100
AcDbEntity
  8
1
  6
CONTINUOUS
 62
           7
100
AcDbCircle
 10
-150.075406041489
 20
693.58183393838
 40
8.752176918573
100
AcDbArc
 50
-96.398601960823
 51
-95.88090714499
  0
ARC
  5
428
100
AcDbEntity
  8
1
  6
CONTINUOUS
 62
           7
100
AcDbCircle
 10
-149.132528519594
 20
702.735703164356
 40
17.954477708462
100
AcDbArc
 50
-95.88090714499
 51
-95.262576463022
  0
ARC
  5
427
100
AcDbEntity
  8
1
  6
CONTINUOUS
 62
           7
100
AcDbCircle
 10
-149.826959020763
 20
695.196432877424
 40
10.383293509119
100
AcDbArc
 50
-95.262576463022
 51
-94.728908140919
  0
ARC
  5
426
100
AcDbEntity
  8
1
  6
CONTINUOUS
 62
           7
100
AcDbCircle
 10
-148.435854273108
 20
712.012865618613
 40
27.257166288001
100
AcDbArc
 50
-94.72890814092
 51
-94.525798822245
  0
ARC
  5
425
100
AcDbEntity
  8
1
  6
CONTINUOUS
 62
           7
100
AcDbCircle
 10
-149.730378613125
 20
695.658524955225
 40
10.851671726695
100
AcDbArc
 50
-94.525798822244
 51
-94.015996292571
  0
ARC
  5
424
100
AcDbEntity
  8
1
  6
CONTINUOUS
 62
           7
100
AcDbCircle
 10
-148.324853338833
 20
715.67815057305
 40
30.920575811735
100
AcDbArc
 50
-94.015996292571
 51
-93.837176062148
  0
ARC
  5
423
100
AcDbEntity
  8
1
  6
CONTINUOUS
 62
           7
100
AcDbCircle
 10
-149.631625748297
 20
696.194923679029
 40
11.393574394875
100
AcDbArc
 50
-93.837176062148
 51
-93.352054478333
  0
ARC
  5
422
100
AcDbEntity
  8
1
  6
CONTINUOUS
 62
           7
100
AcDbCircle
 10
-148.19657879313
 20
720.69580935486
 40
35.936450319748
100
AcDbArc
 50
-93.352054478334
 51
-93.198275729861
  0
ARC
  5
421
100
AcDbEntity
  8
1
  6
CONTINUOUS
 62
           7
100
AcDbCircle
 10
-149.530907743762
 20
696.816693931409
 40
12.020083807357
100
AcDbArc
 50
-93.198275729861
 51
-92.738525050398
  0
ARC
  5
420
100
AcDbEntity
  8
1
  6
CONTINUOUS
 62
           7
100
AcDbCircle
 10
-148.043871433539
 20
727.904967022336
 40
43.143901066235
100
AcDbArc
 50
-92.738525050399
 51
-92.610415813266
  0
ARC
  5
41F
100
AcDbEntity
  8
1
  6
CONTINUOUS
 62
           7
100
AcDbCircle
 10
-149.399665830133
 20
698.167351999735
 40
13.375395465881
100
AcDbArc
 50
-92.610415813267
 51
-92.131244678596
  0
ARC
  5
41E
100
AcDbEntity
  8
1
  6
CONTINUOUS
 62
           7
100
AcDbCircle
 10
-148.306609767376
 20
727.53920808454
 40
42.767583227646
100
AcDbArc
 50
-92.131244678595
 51
-91.9813345263
  0
ARC
  5
41D
100
AcDbEntity
  8
1
  6
CONTINUOUS
 62
           7
100
AcDbCircle
 10
-149.300031170751
 20
698.823126748664
 40
14.034323520935
100
AcDbArc
 50
-91.9813345263
 51
-91.524365128586
  0
ARC
  5
41C
100
AcDbEntity
  8
1
  6
CONTINUOUS
 62
           7
100
AcDbCircle
 10
-148.338323919563
 20
734.961951998578
 40
50.185942727835
100
AcDbArc
 50
-91.524365128585
 51
-91.39654237486
  0
ARC
  5
41B
100
AcDbEntity
  8
1
  6
CONTINUOUS
 62
           7
100
AcDbCircle
 10
-149.201956467578
 20
699.536818259526
 40
14.750283264412
100
AcDbArc
 50
-91.39654237486
 51
-90.961548434285
  0
ARC
  5
41A
100
AcDbEntity
  8
1
  6
CONTINUOUS
 62
           7
100
AcDbCircle
 10
-148.433109507708
 20
745.345795369357
 40
60.565711992044
100
AcDbArc
 50
-90.961548434284
 51
-90.85559218972
  0
ARC
  5
419
100
AcDbEntity
  8
1
  6
CONTINUOUS
 62
           7
100
AcDbCircle
 10
-149.105579062187
 20
700.316394898806
 40
15.531290467627
100
AcDbArc
 50
-90.855592189721
 51
-90.442359374472
  0
ARC
  5
418
100
AcDbEntity
  8
1
  6
CONTINUOUS
 62
           7
100
AcDbCircle
 10
-148.63764133606
 20
760.923958821783
 40
76.140660786029
100
AcDbArc
 50
-90.442359374473
 51
-90.358062968964
  0
ARC
  5
417
100
AcDbEntity
  8
1
  6
CONTINUOUS
 62
           7
100
AcDbCircle
 10
-149.011060571169
 20
701.171709958602
 40
16.387245100123
100
AcDbArc
 50
-90.358062968964
 51
-89.966393314799
  0
ARC
  5
416
100
AcDbEntity
  8
1
  6
CONTINUOUS
 62
           7
100
AcDbCircle
 10
-149.061368454571
 20
786.941224191588
 40
102.156774087086
100
AcDbArc
 50
-89.966393314799
 51
-89.903568481193
  0
ARC
  5
415
100
AcDbEntity
  8
1
  6
CONTINUOUS
 62
           7
100
AcDbCircle
 10
-148.927400117974
 20
707.342633163016
 40
22.55807032095
100
AcDbArc
 50
-89.903568481193
 51
-89.272384632696
  0
ARC
  5
414
100
AcDbEntity
  8
1
  6
CONTINUOUS
 62
           7
100
AcDbCircle
 10
-149.263846152407
 20
733.834516631149
 40
49.052090129639
100
AcDbArc
 50
-89.272384632696
 51
-88.98217291742
  0
ARC
  5
413
100
AcDbEntity
  8
1
  6
CONTINUOUS
 62
           7
100
AcDbCircle
 10
-148.82003524164
 20
708.854028686451
 40
24.067660056498
100
AcDbArc
 50
-88.98217291742
 51
-88.390764148019
  0
ARC
  5
412
100
AcDbEntity
  8
1
  6
CONTINUOUS
 62
           7
100
AcDbCircle
 10
-149.741076135708
 20
741.638457936213
 40
56.865024547584
100
AcDbArc
 50
-88.390764148019
 51
-88.140470182425
  0
ARC
  5
411
100
AcDbEntity
  8
1
  6
CONTINUOUS
 62
           7
100
AcDbCircle
 10
-148.733480839699
 20
710.603361756086
 40
25.813576220812
100
AcDbArc
 50
-88.140470182425
 51
-87.589092926286
  0
ARC
  5
410
100
AcDbEntity
  8
1
  6
CONTINUOUS
 62
           7
100
AcDbCircle
 10
-157.630008346898
 20
772.981500538645
 40
88.946570023985
100
AcDbArc
 50
-79.777382726167
 51
-79.619454972475
  0
ARC
  5
40F
100
AcDbEntity
  8
1
  6
CONTINUOUS
 62
           7
100
AcDbCircle
 10
-145.723771369779
 20
707.985225868025
 40
22.868781017285
100
AcDbArc
 50
-79.619454972475
 51
-78.976979832557
  0
ARC
  5
40E
100
AcDbEntity
  8
1
  6
CONTINUOUS
 62
           7
100
AcDbCircle
 10
-155.721795542509
 20
759.310496639023
 40
75.158779172522
100
AcDbArc
 50
-78.976979832557
 51
-78.781477040663
  0
ARC
  5
40D
100
AcDbEntity
  8
1
  6
CONTINUOUS
 62
           7
100
AcDbCircle
 10
-145.280738502706
 20
706.668630058746
 40
21.491454018719
100
AcDbArc
 50
-78.781477040663
 51
-78.126611572341
  0
ARC
  5
40C
100
AcDbEntity
  8
1
  6
CONTINUOUS
 62
           7
100
AcDbCircle
 10
-147.222363718033
 20
716.203598302889
 40
31.221968116982
100
AcDbArc
 50
-78.23989900888
 51
-78.024452611154
  0
ARC
  5
40B
100
AcDbEntity
  8
1
  6
CONTINUOUS
 62
           7
100
AcDbCircle
 10
-146.965789295659
 20
714.993972319657
 40
29.985430429111
100
AcDbArc
 50
-78.024452611154
 51
-77.800121419983
  0
ARC
  5
40A
100
AcDbEntity
  8
1
  6
CONTINUOUS
 62
           7
100
AcDbCircle
 10
-146.723367657957
 20
713.87271633443
 40
28.838267304341
100
AcDbArc
 50
-77.800121419983
 51
-77.566873415608
  0
ARC
  5
409
100
AcDbEntity
  8
1
  6
CONTINUOUS
 62
           7
100
AcDbCircle
 10
-146.493966353766
 20
712.832208181343
 40
27.772771093645
100
AcDbArc
 50
-77.566873415608
 51
-77.32469102837
  0
ARC
  5
408
100
AcDbEntity
  8
1
  6
CONTINUOUS
 62
           7
100
AcDbCircle
 10
-146.275867941508
 20
711.862480873094
 40
26.778820405838
100
AcDbArc
 50
-77.32469102837
 51
-77.073540926117
  0
ARC
  5
407
100
AcDbEntity
  8
1
  6
CONTINUOUS
 62
           7
100
AcDbCircle
 10
-146.068296377449
 20
710.958095214885
 40
25.850919886935
100
AcDbArc
 50
-77.073540926117
 51
-76.813404562518
  0
ARC
  5
406
100
AcDbEntity
  8
1
  6
CONTINUOUS
 62
           7
100
AcDbCircle
 10
-145.869908523597
 20
710.111373293028
 40
24.981267224369
100
AcDbArc
 50
-76.813404562518
 51
-76.544247979685
  0
ARC
  5
405
100
AcDbEntity
  8
1
  6
CONTINUOUS
 62
           7
100
AcDbCircle
 10
-145.680173420134
 20
709.318372297795
 40
24.165883886345
100
AcDbArc
 50
-76.544247979684
 51
-76.266052371438
  0
ARC
  5
404
100
AcDbEntity
  8
1
  6
CONTINUOUS
 62
           7
100
AcDbCircle
 10
-145.457744935627
 20
708.408277780347
 40
23.229002644453
100
AcDbArc
 50
-76.266052371438
 51
-75.722281591167
  0
ARC
  5
403
100
AcDbEntity
  8
1
  6
CONTINUOUS
 62
           7
100
AcDbCircle
 10
-144.964042937322
 20
706.468255860246
 40
21.227146827067
100
AcDbArc
 50
-75.722281591167
 51
-75.443907777742
  0
ARC
  5
402
100
AcDbEntity
  8
1
  6
CONTINUOUS
 62
           7
100
AcDbCircle
 10
-145.016666958607
 20
706.670919153972
 40
21.436530919682
100
AcDbArc
 50
-75.443907777742
 51
-74.892571152483
  0
ARC
  5
401
100
AcDbEntity
  8
1
  6
CONTINUOUS
 62
           7
100
AcDbCircle
 10
-144.471934202649
 20
704.653090070919
 40
19.346466809701
100
AcDbArc
 50
-74.892571152483
 51
-74.281449808567
  0
ARC
  5
400
100
AcDbEntity
  8
1
  6
CONTINUOUS
 62
           7
100
AcDbCircle
 10
-144.420281722041
 20
704.469558637008
 40
19.155805418785
100
AcDbArc
 50
-74.281449808566
 51
-73.663792528836
  0
ARC
  5
3FF
100
AcDbEntity
  8
1
  6
CONTINUOUS
 62
           7
100
AcDbCircle
 10
-143.960562987339
 20
702.901123174919
 40
17.521384691501
100
AcDbArc
 50
-73.663792528836
 51
-72.987759402419
  0
ARC
  5
3FE
100
AcDbEntity
  8
1
  6
CONTINUOUS
 62
           7
100
AcDbCircle
 10
-143.83127126609
 20
702.47855191633
 40
17.079476536146
100
AcDbArc
 50
-72.987759402419
 51
-72.697681967714
  0
ARC
  5
3FD
100
AcDbEntity
  8
1
  6
CONTINUOUS
 62
           7
100
AcDbCircle
 10
-142.790558173214
 20
699.13768292393
 40
13.580263858119
100
AcDbArc
 50
-72.697681967714
 51
-72.332751413495
  0
ARC
  5
3FC
100
AcDbEntity
  8
1
  6
CONTINUOUS
 62
           7
100
AcDbCircle
 10
-142.641861432771
 20
698.670833277288
 40
13.090305377033
100
AcDbArc
 50
-72.332751413495
 51
-71.954172934841
  0
ARC
  5
3FB
100
AcDbEntity
  8
1
  6
CONTINUOUS
 62
           7
100
AcDbCircle
 10
-141.96567166119
 20
696.595384982326
 40
10.907481922823
100
AcDbArc
 50
-71.954172934842
 51
-71.499987873689
  0
ARC
  5
3FA
100
AcDbEntity
  8
1
  6
CONTINUOUS
 62
           7
100
AcDbCircle
 10
-141.856140356221
 20
696.268030648463
 40
10.562289271297
100
AcDbArc
 50
-71.499987873689
 51
-71.031258671376
  0
ARC
  5
3F9
100
AcDbEntity
  8
1
  6
CONTINUOUS
 62
           7
100
AcDbCircle
 10
-141.371001330543
 20
694.856583582555
 40
9.069793812645
100
AcDbArc
 50
-71.031258671377
 51
-70.485896399884
  0
ARC
  5
3F8
100
AcDbEntity
  8
1
  6
CONTINUOUS
 62
           7
100
AcDbCircle
 10
-141.282838393023
 20
694.607813753378
 40
8.805863648662
100
AcDbArc
 50
-70.485896399884
 51
-69.924847348991
  0
ARC
  5
3F7
100
AcDbEntity
  8
1
  6
CONTINUOUS
 62
           7
100
AcDbCircle
 10
-140.910688405461
 20
693.589497968206
 40
7.721676094972
100
AcDbArc
 50
-69.92484734899
 51
-69.285922495057
  0
ARC
  5
3F6
100
AcDbEntity
  8
1
  6
CONTINUOUS
 62
           7
100
AcDbCircle
 10
-140.835551634488
 20
693.390801931316
 40
7.509248108521
100
AcDbArc
 50
-69.285922495058
 51
-68.629986336269
  0
ARC
  5
3F5
100
AcDbEntity
  8
1
  6
CONTINUOUS
 62
           7
100
AcDbCircle
 10
-140.536157451169
 20
692.625659512404
 40
6.687615710046
100
AcDbArc
 50
-68.629986336268
 51
-67.894788957059
  0
ARC
  5
3F4
100
AcDbEntity
  8
1
  6
CONTINUOUS
 62
           7
100
AcDbCircle
 10
-140.534847782489
 20
692.622435028727
 40
6.684135404451
100
AcDbArc
 50
-67.89478895706
 51
-66.177458912208
  0
ARC
  5
3F3
100
AcDbEntity
  8
1
  6
CONTINUOUS
 62
           7
100
AcDbCircle
 10
-140.659120329049
 20
692.903898655348
 40
6.991812896217
100
AcDbArc
 50
-66.177458912209
 51
-65.080949574596
  0
ARC
  5
3F2
100
AcDbEntity
  8
1
  6
CONTINUOUS
 62
           7
100
AcDbCircle
 10
-140.765108910656
 20
693.132032856852
 40
7.243365660714
100
AcDbArc
 50
-65.080949574598
 51
-64.016833513271
  0
ARC
  5
3F1
100
AcDbEntity
  8
1
  6
CONTINUOUS
 62
           7
100
AcDbCircle
 10
-141.027276074628
 20
693.669956259225
 40
7.841774558281
100
AcDbArc
 50
-64.01683351327
 51
-63.522394863803
  0
ARC
  5
3F0
100
AcDbEntity
  8
1
  6
CONTINUOUS
 62
           7
100
AcDbCircle
 10
-140.948091013596
 20
693.510980016896
 40
7.664169041712
100
AcDbArc
 50
-63.522394863802
 51
-63.013916521418
  0
ARC
  5
3EF
100
AcDbEntity
  8
1
  6
CONTINUOUS
 62
           7
100
AcDbCircle
 10
-141.30003898339
 20
694.202131753924
 40
8.439770806174
100
AcDbArc
 50
-63.01391652142
 51
-62.5494526798
  0
ARC
  5
3EE
100
AcDbEntity
  8
1
  6
CONTINUOUS
 62
           7
100
AcDbCircle
 10
-140.179199891269
 20
692.044475035622
 40
6.00835912066
100
AcDbArc
 50
-62.549452679798
 51
-62.086865739473
  0
ARC
  5
3ED
100
AcDbEntity
  8
1
  6
CONTINUOUS
 62
           7
100
AcDbCircle
 10
-138.78639951696
 20
689.415390430671
 40
3.033131609583
100
AcDbArc
 50
-62.086865739474
 51
-61.169027171598
  0
ARC
  5
3EC
100
AcDbEntity
  8
1
  6
CONTINUOUS
 62
           7
100
AcDbCircle
 10
-138.452598261382
 20
688.80898492951
 40
2.340924335666
100
AcDbArc
 50
-61.169027171599
 51
-59.981185328875
  0
ARC
  5
3EB
100
AcDbEntity
  8
1
  6
CONTINUOUS
 62
           7
100
AcDbCircle
 10
-138.114962724509
 20
688.224626261396
 40
1.666037079335
100
AcDbArc
 50
-59.981185328878
 51
-58.318216699783
  0
ARC
  5
3EA
100
AcDbEntity
  8
1
  6
CONTINUOUS
 62
           7
100
AcDbCircle
 10
-137.977472320488
 20
688.001851929788
 40
1.404250880269
100
AcDbArc
 50
-58.318216699787
 51
-56.356315155068
  0
ARC
  5
3E9
100
AcDbEntity
  8
1
  6
CONTINUOUS
 62
           7
100
AcDbCircle
 10
-137.812630446276
 20
687.754154896396
 40
1.106716573264
100
AcDbArc
 50
-56.356315155065
 51
-53.884346436767
  0
ARC
  5
3E8
100
AcDbEntity
  8
1
  6
CONTINUOUS
 62
           7
100
AcDbCircle
 10
-137.730350983969
 20
687.641386318916
 40
0.967121938752
100
AcDbArc
 50
-53.884346436772
 51
-51.077019468243
  0
ARC
  5
3E7
100
AcDbEntity
  8
1
  6
CONTINUOUS
 62
           7
100
AcDbCircle
 10
-137.628460555516
 20
687.515215709312
 40
0.804947088241
100
AcDbArc
 50
-51.077019468244
 51
-47.728284585554
  0
ARC
  5
3E6
100
AcDbEntity
  8
1
  6
CONTINUOUS
 62
           7
100
AcDbCircle
 10
-137.574141801096
 20
687.45546094428
 40
0.724193394668
100
AcDbArc
 50
-47.728284585514
 51
-44.026956528338
  0
ARC
  5
3E5
100
AcDbEntity
  8
1
  6
CONTINUOUS
 62
           7
100
AcDbCircle
 10
-137.512170677413
 20
687.395559754236
 40
0.638004226328
100
AcDbArc
 50
-44.026956528336
 51
-34.538711158039
  0
ARC
  5
3E4
100
AcDbEntity
  8
1
  6
CONTINUOUS
 62
           7
100
AcDbCircle
 10
-137.907201591774
 20
687.667450130355
 40
1.117560062416
100
AcDbArc
 50
-34.53871115809
 51
-33.018019776081
  0
ARC
  5
3E3
100
AcDbEntity
  8
1
  6
CONTINUOUS
 62
           7
100
AcDbCircle
 10
-137.599779259916
 20
687.467670244684
 40
0.750926058478
100
AcDbArc
 50
-33.018019776058
 51
-30.743768298887
  0
ARC
  5
3E2
100
AcDbEntity
  8
1
  6
CONTINUOUS
 62
           7
100
AcDbCircle
 10
-138.512846048975
 20
688.010753450507
 40
1.81329620571
100
AcDbArc
 50
-30.743768298898
 51
-29.797278729101
  0
ARC
  5
3E1
100
AcDbEntity
  8
1
  6
CONTINUOUS
 62
           7
100
AcDbCircle
 10
-137.813748139389
 20
687.610420395698
 40
1.007688086362
100
AcDbArc
 50
-29.797278729106
 51
-28.08596255836
  0
ARC
  5
3E0
100
AcDbEntity
  8
1
  6
CONTINUOUS
 62
           7
100
AcDbCircle
 10
-140.782493324268
 20
689.19464811242
 40
4.372688150429
100
AcDbArc
 50
-28.08596255833
 51
-27.68995804297
  0
ARC
  5
3DF
100
AcDbEntity
  8
1
  6
CONTINUOUS
 62
           7
100
AcDbCircle
 10
-138.222512998316
 20
687.851200688385
 40
1.481606994459
100
AcDbArc
 50
-27.689958042977
 51
-26.517307946798
  0
ARC
  5
3DE
100
AcDbEntity
  8
1
  6
CONTINUOUS
 62
           7
100
AcDbCircle
 10
-140.892900620699
 20
689.206394174544
 40
4.476165711849
100
AcDbArc
 50
-26.778221772774
 51
-26.389181267547
  0
ARC
  5
3DD
100
AcDbEntity
  8
1
  6
CONTINUOUS
 62
           7
100
AcDbCircle
 10
-148.983859039097
 20
693.220876771719
 40
13.508312668762
100
AcDbArc
 50
-26.389181267556
 51
-26.260114410356
  0
ARC
  5
3DC
100
AcDbEntity
  8
1
  6
CONTINUOUS
 62
           7
100
AcDbCircle
 10
-141.060481889725
 20
695.47002135298
 40
15.97523092533
100
AcDbArc
 50
-131.87163638832
 51
-131.769211316192
  0
ARC
  5
3DB
100
AcDbEntity
  8
1
  6
CONTINUOUS
 62
           7
100
AcDbCircle
 10
-148.160698518527
 20
687.520267933248
 40
5.316354079692
100
AcDbArc
 50
-131.769211316196
 51
-131.461647545495
  0
ARC
  5
3DA
100
AcDbEntity
  8
1
  6
CONTINUOUS
 62
           7
100
AcDbCircle
 10
-149.577799165489
 20
685.916364951569
 40
3.176101987471
100
AcDbArc
 50
-131.46164754549
 51
-130.947530456019
  0
ARC
  5
3D9
100
AcDbEntity
  8
1
  6
CONTINUOUS
 62
           7
100
AcDbCircle
 10
-150.18107997527
 20
685.221084846948
 40
2.255579223314
100
AcDbArc
 50
-130.947530456028
 51
-130.225010096411
  0
ARC
  5
3D8
100
AcDbEntity
  8
1
  6
CONTINUOUS
 62
           7
100
AcDbCircle
 10
-150.513155927158
 20
684.828473776539
 40
1.741363421893
100
AcDbArc
 50
-130.225010096413
 51
-129.291402548669
  0
ARC
  5
3D7
100
AcDbEntity
  8
1
  6
CONTINUOUS
 62
           7
100
AcDbCircle
 10
-150.721054458213
 20
684.574393629886
 40
1.413067031207
100
AcDbArc
 50
-129.291402548651
 51
-128.144046946568
  0
ARC
  5
3D6
100
AcDbEntity
  8
1
  6
CONTINUOUS
 62
           7
100
AcDbCircle
 10
-150.861752809548
 20
684.395238186237
 40
1.185267340564
100
AcDbArc
 50
-128.144046946561
 51
-126.780094060108
  0
ARC
  5
3D5
100
AcDbEntity
  8
1
  6
CONTINUOUS
 62
           7
100
AcDbCircle
 10
-150.961444239113
 20
684.261881334217
 40
1.018766796693
100
AcDbArc
 50
-126.780094060138
 51
-125.197572019759
  0
ARC
  5
3D4
100
AcDbEntity
  8
1
  6
CONTINUOUS
 62
           7
100
AcDbCircle
 10
-151.034213527913
 20
684.158715010324
 40
0.892518391641
100
AcDbArc
 50
-125.197572019741
 51
-123.395398673088
  0
ARC
  5
3D3
100
AcDbEntity
  8
1
  6
CONTINUOUS
 62
           7
100
AcDbCircle
 10
-151.088035701872
 20
684.077075133401
 40
0.794733444365
100
AcDbArc
 50
-123.39539867308
 51
-121.374669648244
  0
ARC
  5
3D2
100
AcDbEntity
  8
1
  6
CONTINUOUS
 62
           7
100
AcDbCircle
 10
-151.101556401536
 20
684.054902635128
 40
0.768763673495
100
AcDbArc
 50
-121.374669648239
 51
-118.216705465338
  0
ARC
  5
3D1
100
AcDbEntity
  8
1
  6
CONTINUOUS
 62
           7
100
AcDbCircle
 10
-151.037543591572
 20
684.174202485935
 40
0.904152351906
100
AcDbArc
 50
-118.21670546534
 51
-115.527436570572
  0
ARC
  5
3D0
100
AcDbEntity
  8
1
  6
CONTINUOUS
 62
           7
100
AcDbCircle
 10
-151.015322960496
 20
684.22073165439
 40
0.955715128814
100
AcDbArc
 50
-115.527436570574
 51
-112.975239893936
  0
ARC
  5
3CF
100
AcDbEntity
  8
1
  6
CONTINUOUS
 62
           7
100
AcDbCircle
 10
-150.929011164146
 20
684.424314064566
 40
1.176838451697
100
AcDbArc
 50
-112.975239893935
 51
-110.894337150504
  0
ARC
  5
3CE
100
AcDbEntity
  8
1
  6
CONTINUOUS
 62
           7
100
AcDbCircle
 10
-150.899150246322
 20
684.502535275354
 40
1.260565581293
100
AcDbArc
 50
-110.894337150507
 51
-108.943446131761
  0
ARC
  5
3CD
100
AcDbEntity
  8
1
  6
CONTINUOUS
 62
           7
100
AcDbCircle
 10
-150.771334004297
 20
684.874934278137
 40
1.654288845781
100
AcDbArc
 50
-108.943446131752
 51
-107.451083262775
  0
ARC
  5
3CC
100
AcDbEntity
  8
1
  6
CONTINUOUS
 62
           7
100
AcDbCircle
 10
-150.728287319937
 20
685.011868456989
 40
1.79782973324
100
AcDbArc
 50
-107.45108326278
 51
-106.073546442369
  0
ARC
  5
3CB
100
AcDbEntity
  8
1
  6
CONTINUOUS
 62
           7
100
AcDbCircle
 10
-150.490447450591
 20
685.837314210618
 40
2.656857378681
100
AcDbArc
 50
-106.073546442374
 51
-105.139512922067
  0
ARC
  5
3CA
100
AcDbEntity
  8
1
  6
CONTINUOUS
 62
           7
100
AcDbCircle
 10
-150.404967079305
 20
686.153252099924
 40
2.984154863815
100
AcDbArc
 50
-105.139512922061
 51
-104.307390367533
  0
ARC
  5
3C9
100
AcDbEntity
  8
1
  6
CONTINUOUS
 62
           7
100
AcDbCircle
 10
-149.602038081787
 20
689.301571329401
 40
6.23324842137
100
AcDbArc
 50
-104.307390367537
 51
-103.909401344685
  0
ARC
  5
3C8
100
AcDbEntity
  8
1
  6
CONTINUOUS
 62
           7
100
AcDbCircle
 10
-139.640986250896
 20
687.310291187627
 40
3.071057394625
100
AcDbArc
 50
-57.677013735906
 51
-56.211659073533
  0
ARC
  5
3C7
100
AcDbEntity
  8
1
  6
CONTINUOUS
 62
           7
100
AcDbCircle
 10
-139.542287197357
 20
687.162791382183
 40
2.893581492668
100
AcDbArc
 50
-56.211659073532
 51
-54.653377022216
  0
ARC
  5
3C6
100
AcDbEntity
  8
1
  6
CONTINUOUS
 62
           7
100
AcDbCircle
 10
-140.425054572893
 20
688.407419720014
 40
4.419483828547
100
AcDbArc
 50
-54.653377022216
 51
-53.630864283775
  0
ARC
  5
3C5
100
AcDbEntity
  8
1
  6
CONTINUOUS
 62
           7
100
AcDbCircle
 10
-140.205469314967
 20
688.109245372845
 40
4.04917905298
100
AcDbArc
 50
-53.630864283777
 51
-52.512340841198
  0
ARC
  5
3C4
100
AcDbEntity
  8
1
  6
CONTINUOUS
 62
           7
100
AcDbCircle
 10
-142.446594802102
 20
691.031239886089
 40
7.73166399993
100
AcDbArc
 50
-52.512340841195
 51
-51.925368589609
  0
ARC
  5
3C3
100
AcDbEntity
  8
1
  6
CONTINUOUS
 62
           7
100
AcDbCircle
 10
-141.756784460654
 20
690.150689493714
 40
6.613090220208
100
AcDbArc
 50
-51.925368589607
 51
-51.237966217012
  0
ARC
  5
3C2
100
AcDbEntity
  8
1
  6
CONTINUOUS
 62
           7
100
AcDbCircle
 10
-155.452588043957
 20
707.207966839422
 40
28.488321561632
100
AcDbArc
 50
-51.237966217014
 51
-51.078209908503
  0
ARC
  5
3C1
100
AcDbEntity
  8
1
  6
CONTINUOUS
 62
           7
100
AcDbCircle
 10
-148.430508935511
 20
698.512177876976
 40
17.311276304291
100
AcDbArc
 50
-51.078209908503
 51
-50.815146392498
  0
ARC
  5
3C0
100
AcDbEntity
  8
1
  6
CONTINUOUS
 62
           7
100
AcDbCircle
 10
-149.839518000556
 20
736.873082505656
 40
52.106570467599
100
AcDbArc
 50
-87.589092926285
 51
-87.437240719
  0
ARC
  5
3BF
100
AcDbEntity
  8
1
  6
CONTINUOUS
 62
           7
100
AcDbCircle
 10
-153.556257929538
 20
730.258098412198
 40
43.872592295283
100
AcDbArc
 50
-78.635759272058
 51
-74.877191567705
  0
ARC
  5
3BE
100
AcDbEntity
  8
1
  6
CONTINUOUS
 62
           7
100
AcDbCircle
 10
-144.050966264295
 20
679.488486564837
 40
11.951150572226
100
AcDbArc
 50
82.500409263665
 51
96.329152807968
  0
ARC
  5
3BD
100
AcDbEntity
  8
1
  6
CONTINUOUS
 62
           7
100
AcDbCircle
 10
-139.399024885712
 20
688.803178300685
 40
3.206062139251
100
AcDbArc
 50
69.448659696409
 51
123.209645919528
  0
ARC
  5
3BC
100
AcDbEntity
  8
1
  6
CONTINUOUS
 62
           7
100
AcDbCircle
 10
-139.648797292914
 20
691.055082873378
 40
3.206062139251
100
AcDbArc
 50
-110.551340303592
 51
-82.358935240069
  0
ARC
  5
3BB
100
AcDbEntity
  8
1
  6
CONTINUOUS
 62
           7
100
AcDbCircle
 10
-145.902169792405
 20
731.107059794544
 40
43.872592295283
100
AcDbArc
 50
-92.464502816358
 51
-88.705935112005
  0
ARC
  5
3BA
100
AcDbEntity
  8
1
  6
CONTINUOUS
 62
           7
100
AcDbCircle
 10
-144.050966264295
 20
679.488486564837
 40
11.951150572226
100
AcDbArc
 50
96.329152807968
 51
110.157896352272
  0
ARC
  5
3B9
100
AcDbEntity
  8
1
  6
CONTINUOUS
 62
           7
100
AcDbCircle
 10
-150.631025380872
 20
687.557368937632
 40
3.206062139251
100
AcDbArc
 50
69.448659696409
 51
123.209645919526
  0
ARC
  5
3B8
100
AcDbEntity
  8
1
  6
CONTINUOUS
 62
           7
100
AcDbCircle
 10
-150.880797788073
 20
689.809273510325
 40
3.206062139251
100
AcDbArc
 50
-84.982759143996
 51
-56.790354080471
  0
ARC
  5
3B7
100
AcDbEntity
  8
1
  6
CONTINUOUS
 62
           7
100
AcDbCircle
 10
-175.996039744633
 20
766.970047306711
 40
7.606455139521
100
AcDbArc
 50
6.55208420003
 51
23.688776139798
  0
ARC
  5
3B6
100
AcDbEntity
  8
1
  6
CONTINUOUS
 62
           7
100
AcDbCircle
 10
-186.586449607365
 20
772.978828592715
 40
17.482664574205
100
AcDbArc
 50
-5.305758275005
 51
4.13532034664
  0
ARC
  5
3B5
100
AcDbEntity
  8
1
  6
CONTINUOUS
 62
           7
100
AcDbCircle
 10
-186.438895375032
 20
771.648505302779
 40
17.482664574192
100
AcDbArc
 50
8.522985269294
 51
17.964063890946
  0
ARC
  5
3B4
100
AcDbEntity
  8
1
  6
CONTINUOUS
 62
           7
100
AcDbCircle
 10
-177.422634940542
 20
779.831981421204
 40
7.606455139523
100
AcDbArc
 50
-11.030470523863
 51
5.287208694029
  0
ARC
  5
3B3
100
AcDbEntity
  8
1
  6
CONTINUOUS
 62
           7
100
AcDbCircle
 10
-150.833064152169
 20
785.069066638587
 40
22.809131705981
100
AcDbArc
 50
-168.024017570489
 51
-162.180984873803
  0
ARC
  5
3B2
100
AcDbEntity
  8
1
  6
CONTINUOUS
 62
           7
100
AcDbCircle
 10
-160.226628397737
 20
775.189935054537
 40
12.273121915056
100
AcDbArc
 50
172.68265078377
 51
-174.710720222398
  0
ARC
  5
3B1
100
AcDbEntity
  8
1
  6
CONTINUOUS
 62
           7
100
AcDbCircle
 10
-160.152117658053
 20
775.292711724695
 40
12.359841308846
100
AcDbArc
 50
-172.810076155699
 51
-160.046278347233
  0
ARC
  5
3B0
100
AcDbEntity
  8
1
  6
CONTINUOUS
 62
           7
100
AcDbCircle
 10
-148.905112728207
 20
767.686991988748
 40
22.809131706028
100
AcDbArc
 50
174.839290489745
 51
-179.31767681358
  0
LINE
  5
3AF
100
AcDbEntity
  8
1
  6
CONTINUOUS
 62
           7
100
AcDbLine
 10
-55.614622438485
 20
787.930014450313
 11
-55.750466655821
 21
790.391110159771
  0
LINE
  5
3AE
100
AcDbEntity
  8
1
  6
CONTINUOUS
 62
           6
100
AcDbLine
 10
-55.526337255953
 20
786.330547883385
 11
-55.614622438485
 21
787.930014450313
  0
LINE
  5
3AD
100
AcDbEntity
  8
1
  6
CONTINUOUS
 62
           7
100
AcDbLine
 10
-54.331386133319
 20
786.455111416824
 11
-54.06975814371
 21
781.715185527236
  0
LINE
  5
3AC
100
AcDbEntity
  8
1
  6
CONTINUOUS
 62
           6
100
AcDbLine
 10
-54.419671315851
 20
788.054577983752
 11
-54.331386133319
 21
786.455111416824
  0
LINE
  5
3AB
100
AcDbEntity
  8
1
  6
PHANTOM
 62
           2
100
AcDbLine
 10
-50.737856648543
 20
786.120369435708
 11
-50.226251504089
 21
793.705060109788
  0
LINE
  5
3AA
100
AcDbEntity
  8
1
  6
PHANTOM
 62
           2
100
AcDbLine
 10
-50.226251504089
 20
793.705060109788
 11
-49.45221481816
 21
805.180372461125
  0
LINE
  5
3A9
100
AcDbEntity
  8
1
  6
CONTINUOUS
 62
           7
100
AcDbLine
 10
-57.533884796977
 20
792.997025200196
 11
-57.552211034713
 21
790.479079632062
  0
LINE
  5
3A8
100
AcDbEntity
  8
1
  6
CONTINUOUS
 62
           7
100
AcDbLine
 10
-57.552211034713
 20
790.479079632062
 11
-54.552290490944
 21
790.457245459882
  0
LINE
  5
3A7
100
AcDbEntity
  8
1
  6
PHANTOM
 62
           2
100
AcDbLine
 10
-57.443040173814
 20
805.478682350905
 11
-57.533884796977
 21
792.997025200196
  0
LINE
  5
3A6
100
AcDbEntity
  8
1
  6
CONTINUOUS
 62
           7
100
AcDbLine
 10
-52.80707547053
 20
755.443616334461
 11
-50.737856648543
 21
786.120369435708
  0
LINE
  5
3A5
100
AcDbEntity
  8
1
  6
CONTINUOUS
 62
           7
100
AcDbLine
 10
-54.552290490944
 20
790.457245459882
 11
-54.419671315851
 21
788.054577983752
  0
LINE
  5
3A4
100
AcDbEntity
  8
1
  6
CONTINUOUS
 62
           7
100
AcDbLine
 10
-55.31283781393
 20
782.462569024662
 11
-55.526337255953
 21
786.330547883385
  0
LINE
  5
3A3
100
AcDbEntity
  8
1
  6
CONTINUOUS
 62
           7
100
AcDbLine
 10
-55.31283781393
 20
782.462569024662
 11
-59.978701213437
 21
780.305735910876
  0
LINE
  5
3A2
100
AcDbEntity
  8
1
  6
CONTINUOUS
 62
           7
100
AcDbLine
 10
-57.862201074864
 20
747.887792810951
 11
-57.683668601582
 21
772.417380189764
  0
LINE
  5
3A1
100
AcDbEntity
  8
1
  6
CONTINUOUS
 62
           7
100
AcDbLine
 10
-64.603778478429
 20
736.904123408092
 11
-63.452358521586
 21
735.5205656453
  0
LINE
  5
3A0
100
AcDbEntity
  8
1
  6
CONTINUOUS
 62
           7
100
AcDbLine
 10
-54.193358623699
 20
783.954460904234
 11
-55.395668244833
 21
783.963211614427
  0
LINE
  5
39F
100
AcDbEntity
  8
1
  6
CONTINUOUS
 62
           7
100
AcDbLine
 10
-54.06975814371
 20
781.715185527236
 11
-60.175060274878
 21
778.892960211432
  0
LINE
  5
39E
100
AcDbEntity
  8
1
  6
CONTINUOUS
 62
           7
100
AcDbLine
 10
-7.486080933517
 20
717.626735336556
 11
-2.26750998108
 21
715.845033810971
  0
LINE
  5
39D
100
AcDbEntity
  8
1
  6
CONTINUOUS
 62
           7
100
AcDbLine
 10
-16.269568159666
 20
757.422473160898
 11
-17.95543622781
 21
757.486697811288
  0
LINE
  5
39C
100
AcDbEntity
  8
1
  6
CONTINUOUS
 62
           7
100
AcDbLine
 10
-18.403325315456
 20
764.622271650251
 11
-20.099196483697
 21
764.682706504137
  0
LINE
  5
39B
100
AcDbEntity
  8
1
  6
CONTINUOUS
 62
           7
100
AcDbLine
 10
-18.588666429932
 20
758.58112854394
 11
-18.961164045302
 21
758.305928379625
  0
LINE
  5
39A
100
AcDbEntity
  8
1
  6
CONTINUOUS
 62
           7
100
AcDbLine
 10
-19.186914973746
 20
757.661522018516
 11
-18.858399472723
 21
756.540204866786
  0
LINE
  5
399
100
AcDbEntity
  8
1
  6
CONTINUOUS
 62
           7
100
AcDbLine
 10
-14.877229308573
 20
757.369430768304
 11
-16.269568159666
 21
757.422473160898
  0
LINE
  5
398
100
AcDbEntity
  8
1
  6
CONTINUOUS
 62
           7
100
AcDbLine
 10
-14.018374594508
 20
755.954044942372
 11
-14.300104816639
 21
756.915654594814
  0
LINE
  5
397
100
AcDbEntity
  8
1
  6
CONTINUOUS
 62
           7
100
AcDbLine
 10
-16.602470012814
 20
754.645893522078
 11
-14.018374594508
 21
755.954044942372
  0
LINE
  5
396
100
AcDbEntity
  8
1
  6
CONTINUOUS
 62
           7
100
AcDbLine
 10
-16.548562899509
 20
754.457057111808
 11
-14.170464591324
 21
754.665737544823
  0
LINE
  5
395
100
AcDbEntity
  8
1
  6
CONTINUOUS
 62
           7
100
AcDbLine
 10
-15.857929949838
 20
759.132271203205
 11
-15.107923371309
 21
759.673028912916
  0
LINE
  5
394
100
AcDbEntity
  8
1
  6
CONTINUOUS
 62
           7
100
AcDbLine
 10
-15.647342690676
 20
758.413476793508
 11
-15.857929949838
 21
759.132271203205
  0
LINE
  5
393
100
AcDbEntity
  8
1
  6
CONTINUOUS
 62
           7
100
AcDbLine
 10
-16.410145676409
 20
757.902304341406
 11
-15.647342690676
 21
758.413476793508
  0
LINE
  5
392
100
AcDbEntity
  8
1
  6
CONTINUOUS
 62
           7
100
AcDbLine
 10
-16.614227500701
 20
758.598893845467
 11
-16.410145676409
 21
757.902304341406
  0
LINE
  5
391
100
AcDbEntity
  8
1
  6
CONTINUOUS
 62
           7
100
AcDbLine
 10
-18.007119356874
 20
757.669817059725
 11
-16.614227500701
 21
758.598893845467
  0
LINE
  5
390
100
AcDbEntity
  8
1
  6
CONTINUOUS
 62
           7
100
AcDbLine
 10
-15.827203222036
 20
756.123148097707
 11
-17.871328174455
 21
755.061446636529
  0
LINE
  5
38F
100
AcDbEntity
  8
1
  6
CONTINUOUS
 62
           7
100
AcDbLine
 10
-18.858399472723
 20
756.540204866786
 11
-15.86567953099
 21
756.31160139069
  0
LINE
  5
38E
100
AcDbEntity
  8
1
  6
CONTINUOUS
 62
           7
100
AcDbLine
 10
-15.464289742683
 20
760.88940903281
 11
-18.588666429932
 21
758.58112854394
  0
LINE
  5
38D
100
AcDbEntity
  8
1
  6
CONTINUOUS
 62
           7
100
AcDbLine
 10
-15.107923371309
 20
759.673028912916
 11
-15.464289742683
 21
760.88940903281
  0
LINE
  5
38C
100
AcDbEntity
  8
1
  6
CONTINUOUS
 62
           7
100
AcDbLine
 10
-20.40462434922
 20
763.005743523916
 11
-20.724932207767
 21
762.911213734104
  0
LINE
  5
38B
100
AcDbEntity
  8
1
  6
CONTINUOUS
 62
           7
100
AcDbLine
 10
-19.491687232508
 20
761.663396233421
 11
-19.787275081515
 21
762.672321912428
  0
LINE
  5
38A
100
AcDbEntity
  8
1
  6
CONTINUOUS
 62
           7
100
AcDbLine
 10
-15.99148058272
 20
762.688861811528
 11
-19.491687232508
 21
761.663396233421
  0
LINE
  5
389
100
AcDbEntity
  8
1
  6
CONTINUOUS
 62
           7
100
AcDbLine
 10
-15.648789750604
 20
761.519179551461
 11
-15.99148058272
 21
762.688861811528
  0
LINE
  5
388
100
AcDbEntity
  8
1
  6
CONTINUOUS
 62
           7
100
AcDbLine
 10
-19.149001619084
 20
760.493712444417
 11
-15.648789750604
 21
761.519179551461
  0
LINE
  5
387
100
AcDbEntity
  8
1
  6
CONTINUOUS
 62
           7
100
AcDbLine
 10
-18.763412514377
 20
759.177586796521
 11
-19.149001619084
 21
760.493712444417
  0
LINE
  5
386
100
AcDbEntity
  8
1
  6
CONTINUOUS
 62
           7
100
AcDbLine
 10
-19.56203733017
 20
758.941921667679
 11
-18.763412514377
 21
759.177586796521
  0
LINE
  5
385
100
AcDbEntity
  8
1
  6
CONTINUOUS
 62
           7
100
AcDbLine
 10
-20.724932207767
 20
762.911213734104
 11
-19.56203733017
 21
758.941921667679
  0
LINE
  5
384
100
AcDbEntity
  8
1
  6
CONTINUOUS
 62
           7
100
AcDbLine
 10
-16.20230592939
 20
763.408468881828
 11
-16.538446911304
 21
764.555813975881
  0
LINE
  5
383
100
AcDbEntity
  8
1
  6
CONTINUOUS
 62
           7
100
AcDbLine
 10
-20.964746006224
 20
763.729766662634
 11
-16.20230592939
 21
763.408468881828
  0
LINE
  5
382
100
AcDbEntity
  8
1
  6
CONTINUOUS
 62
           7
100
AcDbLine
 10
-21.28310346689
 20
764.816411523875
 11
-20.964746006224
 21
763.729766662634
  0
LINE
  5
381
100
AcDbEntity
  8
1
  6
CONTINUOUS
 62
           7
100
AcDbLine
 10
-17.568650779649
 20
768.07219376239
 11
-21.049075440558
 21
765.504813193812
  0
LINE
  5
380
100
AcDbEntity
  8
1
  6
CONTINUOUS
 62
           7
100
AcDbLine
 10
-17.211086271789
 20
766.851724060768
 11
-17.568650779649
 21
768.07219376239
  0
LINE
  5
37F
100
AcDbEntity
  8
1
  6
CONTINUOUS
 62
           7
100
AcDbLine
 10
-17.975958740765
 20
766.330086742915
 11
-17.211086271789
 21
766.851724060768
  0
LINE
  5
37E
100
AcDbEntity
  8
1
  6
CONTINUOUS
 62
           7
100
AcDbLine
 10
-17.764927919085
 20
765.609778327763
 11
-17.975958740765
 21
766.330086742915
  0
LINE
  5
37D
100
AcDbEntity
  8
1
  6
CONTINUOUS
 62
           7
100
AcDbLine
 10
-18.543902832199
 20
765.102102830757
 11
-17.764927919085
 21
765.609778327763
  0
LINE
  5
37C
100
AcDbEntity
  8
1
  6
CONTINUOUS
 62
           7
100
AcDbLine
 10
-18.744014386773
 20
765.785140671296
 11
-18.543902832199
 21
765.102102830757
  0
LINE
  5
37B
100
AcDbEntity
  8
1
  6
CONTINUOUS
 62
           7
100
AcDbLine
 10
-20.150329461699
 20
764.866360009785
 11
-18.744014386773
 21
765.785140671296
  0
LINE
  5
37A
100
AcDbEntity
  8
1
  6
CONTINUOUS
 62
           7
100
AcDbLine
 10
-16.538446911304
 20
764.555813975881
 11
-18.403325315456
 21
764.622271650251
  0
LINE
  5
379
100
AcDbEntity
  8
1
  6
CONTINUOUS
 62
           7
100
AcDbLine
 10
-7.743308449387
 20
728.282383866421
 11
-5.890318056589
 21
728.210773125354
  0
LINE
  5
378
100
AcDbEntity
  8
1
  6
CONTINUOUS
 62
           7
100
AcDbLine
 10
-5.554359115072
 20
727.064100477581
 11
-5.890318056589
 21
728.210773125354
  0
LINE
  5
377
100
AcDbEntity
  8
1
  6
CONTINUOUS
 62
           7
100
AcDbLine
 10
-10.317338973336
 20
727.387128064956
 11
-5.554359115072
 21
727.064100477581
  0
LINE
  5
376
100
AcDbEntity
  8
1
  6
CONTINUOUS
 62
           7
100
AcDbLine
 10
-10.641313882308
 20
728.492946880294
 11
-10.317338973336
 21
727.387128064956
  0
LINE
  5
375
100
AcDbEntity
  8
1
  6
CONTINUOUS
 62
           7
100
AcDbLine
 10
-9.414936277876
 20
728.346985662554
 11
-7.743308449387
 21
728.282383866421
  0
LINE
  5
374
100
AcDbEntity
  8
1
  6
CONTINUOUS
 62
           7
100
AcDbLine
 10
-8.084436917177
 20
729.446752673024
 11
-9.466345343743
 21
728.530248577341
  0
LINE
  5
373
100
AcDbEntity
  8
1
  6
CONTINUOUS
 62
           7
100
AcDbLine
 10
-7.883885966129
 20
728.762215046928
 11
-8.084436917177
 21
729.446752673024
  0
LINE
  5
372
100
AcDbEntity
  8
1
  6
CONTINUOUS
 62
           7
100
AcDbLine
 10
-7.121179426984
 20
729.27970096324
 11
-7.329960848261
 21
729.992331532914
  0
LINE
  5
371
100
AcDbEntity
  8
1
  6
CONTINUOUS
 62
           7
100
AcDbLine
 10
-7.883885966129
 20
728.762215046928
 11
-7.121179426984
 21
729.27970096324
  0
LINE
  5
370
100
AcDbEntity
  8
1
  6
CONTINUOUS
 62
           7
100
AcDbLine
 10
-6.570923304204
 20
730.533834423705
 11
-7.329960848261
 21
729.992331532914
  0
LINE
  5
36F
100
AcDbEntity
  8
1
  6
CONTINUOUS
 62
           7
100
AcDbLine
 10
-6.929576679504
 20
731.758000382759
 11
-6.570923304204
 21
730.533834423705
  0
LINE
  5
36E
100
AcDbEntity
  8
1
  6
CONTINUOUS
 62
           7
100
AcDbLine
 10
-10.41626353931
 20
729.178052089097
 11
-6.929576679504
 21
731.758000382759
  0
LINE
  5
36D
100
AcDbEntity
  8
1
  6
CONTINUOUS
 62
           7
100
AcDbLine
 10
-11.745314910371
 20
732.261247770322
 11
-11.369442259093
 21
730.978256812418
  0
LINE
  5
36C
100
AcDbEntity
  8
1
  6
CONTINUOUS
 62
           7
100
AcDbLine
 10
-9.451191324604
 20
734.71484138035
 11
-11.550100107285
 21
732.919396660473
  0
LINE
  5
36B
100
AcDbEntity
  8
1
  6
CONTINUOUS
 62
           7
100
AcDbLine
 10
-12.279747708657
 20
734.085389080846
 11
-9.544310381263
 21
734.886797997797
  0
LINE
  5
36A
100
AcDbEntity
  8
1
  6
CONTINUOUS
 62
           7
100
AcDbLine
 10
-12.5943582151
 20
735.15922679364
 11
-12.279747708657
 21
734.085389080846
  0
LINE
  5
369
100
AcDbEntity
  8
1
  6
CONTINUOUS
 62
           7
100
AcDbLine
 10
-8.295066055459
 20
736.418802744734
 11
-12.5943582151
 21
735.15922679364
  0
LINE
  5
368
100
AcDbEntity
  8
1
  6
CONTINUOUS
 62
           7
100
AcDbLine
 10
-7.923173508306
 20
735.149427356284
 11
-8.295066055459
 21
736.418802744734
  0
LINE
  5
367
100
AcDbEntity
  8
1
  6
CONTINUOUS
 62
           7
100
AcDbLine
 10
-10.312996952397
 20
732.639494502416
 11
-8.123913854027
 21
734.48818356869
  0
LINE
  5
366
100
AcDbEntity
  8
1
  6
CONTINUOUS
 62
           7
100
AcDbLine
 10
-7.38104012322
 20
733.298971407239
 11
-10.220360718697
 21
732.467127511381
  0
LINE
  5
365
100
AcDbEntity
  8
1
  6
CONTINUOUS
 62
           7
100
AcDbLine
 10
-7.070154881753
 20
732.23783136243
 11
-7.38104012322
 21
733.298971407239
  0
LINE
  5
364
100
AcDbEntity
  8
1
  6
CONTINUOUS
 62
           7
100
AcDbLine
 10
-11.369442259093
 20
730.978256812418
 11
-7.070154881753
 21
732.23783136243
  0
LINE
  5
363
100
AcDbEntity
  8
1
  6
CONTINUOUS
 62
           7
100
AcDbLine
 10
-12.780077617181
 20
735.793157835149
 11
-13.807469610135
 21
739.299939888536
  0
LINE
  5
362
100
AcDbEntity
  8
1
  6
CONTINUOUS
 62
           7
100
AcDbLine
 10
-9.126067614548
 20
736.863683622529
 11
-12.780077617181
 21
735.793157835149
  0
LINE
  5
361
100
AcDbEntity
  8
1
  6
CONTINUOUS
 62
           7
100
AcDbLine
 10
-9.510112488167
 20
740.566102950966
 11
-8.670716743328
 21
737.701005739889
  0
LINE
  5
360
100
AcDbEntity
  8
1
  6
CONTINUOUS
 62
           7
100
AcDbLine
 10
-10.333537956859
 20
740.324861630447
 11
-9.510112488167
 21
740.566102950966
  0
LINE
  5
35F
100
AcDbEntity
  8
1
  6
CONTINUOUS
 62
           7
100
AcDbLine
 10
-9.646955112861
 20
737.981397323155
 11
-10.333537956859
 21
740.324861630447
  0
LINE
  5
35E
100
AcDbEntity
  8
1
  6
CONTINUOUS
 62
           7
100
AcDbLine
 10
-12.312357821802
 20
737.200506649176
 11
-9.646955112861
 21
737.981397323155
  0
LINE
  5
35D
100
AcDbEntity
  8
1
  6
CONTINUOUS
 62
           7
100
AcDbLine
 10
-12.996999923892
 20
739.53738551632
 11
-12.312357821802
 21
737.200506649176
  0
LINE
  5
35C
100
AcDbEntity
  8
1
  6
CONTINUOUS
 62
           7
100
AcDbLine
 10
-13.807469610135
 20
739.299939888536
 11
-12.996999923892
 21
739.53738551632
  0
LINE
  5
35B
100
AcDbEntity
  8
1
  6
CONTINUOUS
 62
           7
100
AcDbLine
 10
-12.051032728702
 20
739.634967027614
 11
-11.555416254347
 21
737.94328656918
  0
LINE
  5
35A
100
AcDbEntity
  8
1
  6
CONTINUOUS
 62
           7
100
AcDbLine
 10
-11.227566866487
 20
739.877915430669
 11
-12.051032728702
 21
739.634967027614
  0
LINE
  5
359
100
AcDbEntity
  8
1
  6
CONTINUOUS
 62
           7
100
AcDbLine
 10
-10.807132058157
 20
738.442851452572
 11
-11.227566866487
 21
739.877915430669
  0
LINE
  5
358
100
AcDbEntity
  8
1
  6
CONTINUOUS
 62
           7
100
AcDbLine
 10
-11.555416254347
 20
737.94328656918
 11
-10.807132058157
 21
738.442851452572
  0
LINE
  5
357
100
AcDbEntity
  8
1
  6
CONTINUOUS
 62
           7
100
AcDbLine
 10
-10.495688068295
 20
740.861473895719
 11
-11.016849032997
 21
742.640344989204
  0
LINE
  5
356
100
AcDbEntity
  8
1
  6
CONTINUOUS
 62
           7
100
AcDbLine
 10
-9.667715604783
 20
741.104047362345
 11
-10.495688068295
 21
740.861473895719
  0
LINE
  5
355
100
AcDbEntity
  8
1
  6
CONTINUOUS
 62
           7
100
AcDbLine
 10
-10.171149352868
 20
742.822410406794
 11
-9.667715604783
 21
741.104047362345
  0
LINE
  5
354
100
AcDbEntity
  8
1
  6
CONTINUOUS
 62
           7
100
AcDbLine
 10
-14.022042434711
 20
743.057086855276
 11
-13.635424634691
 21
741.737449976723
  0
LINE
  5
353
100
AcDbEntity
  8
1
  6
CONTINUOUS
 62
           7
100
AcDbLine
 10
-14.837703088525
 20
742.816422868263
 11
-14.022042434711
 21
743.057086855276
  0
LINE
  5
352
100
AcDbEntity
  8
1
  6
CONTINUOUS
 62
           7
100
AcDbLine
 10
-14.423057231376
 20
741.401141770831
 11
-14.837703088525
 21
742.816422868263
  0
LINE
  5
351
100
AcDbEntity
  8
1
  6
CONTINUOUS
 62
           7
100
AcDbLine
 10
-14.887015287755
 20
745.961772696113
 11
-15.152951627975
 21
746.869489314136
  0
LINE
  5
350
100
AcDbEntity
  8
1
  6
CONTINUOUS
 62
           7
100
AcDbLine
 10
-16.097925378316
 20
747.117856256729
 11
-14.99193804101
 21
743.342868648627
  0
LINE
  5
34F
100
AcDbEntity
  8
1
  6
CONTINUOUS
 62
           7
100
AcDbLine
 10
-15.780683138318
 20
747.211515616725
 11
-16.097925378316
 21
747.117856256729
  0
LINE
  5
34E
100
AcDbEntity
  8
1
  6
CONTINUOUS
 62
           7
100
AcDbLine
 10
-11.390973437107
 20
746.986018101074
 11
-14.887015287755
 21
745.961772696113
  0
LINE
  5
34D
100
AcDbEntity
  8
1
  6
CONTINUOUS
 62
           7
100
AcDbLine
 10
-11.043011608144
 20
745.798325082789
 11
-11.390973437107
 21
746.986018101074
  0
LINE
  5
34C
100
AcDbEntity
  8
1
  6
CONTINUOUS
 62
           7
100
AcDbLine
 10
-14.539053458791
 20
744.774079677825
 11
-11.043011608144
 21
745.798325082789
  0
LINE
  5
34B
100
AcDbEntity
  8
1
  6
CONTINUOUS
 62
           7
100
AcDbLine
 10
-14.189150143723
 20
743.579759813436
 11
-14.539053458791
 21
744.774079677825
  0
LINE
  5
34A
100
AcDbEntity
  8
1
  6
CONTINUOUS
 62
           7
100
AcDbLine
 10
-14.99193804101
 20
743.342868648627
 11
-14.189150143723
 21
743.579759813436
  0
LINE
  5
349
100
AcDbEntity
  8
1
  6
CONTINUOUS
 62
           7
100
AcDbLine
 10
-16.851854034287
 20
749.691292688104
 11
-16.650881533616
 21
749.005316192854
  0
LINE
  5
348
100
AcDbEntity
  8
1
  6
CONTINUOUS
 62
           7
100
AcDbLine
 10
-12.700091011667
 20
751.454409959027
 11
-16.501121149863
 21
750.340811260988
  0
LINE
  5
347
100
AcDbEntity
  8
1
  6
CONTINUOUS
 62
           7
100
AcDbLine
 10
-12.351588855474
 20
750.264892295857
 11
-12.700091011667
 21
751.454409959027
  0
LINE
  5
346
100
AcDbEntity
  8
1
  6
CONTINUOUS
 62
           7
100
AcDbLine
 10
-16.650881533616
 20
749.005316192854
 11
-12.351588855474
 21
750.264892295857
  0
LINE
  5
345
100
AcDbEntity
  8
1
  6
CONTINUOUS
 62
           7
100
AcDbLine
 10
-17.921063998881
 20
753.340811412077
 11
-18.200826095658
 21
754.295719282612
  0
LINE
  5
344
100
AcDbEntity
  8
1
  6
CONTINUOUS
 62
           7
100
AcDbLine
 10
-15.126979494505
 20
753.622978917049
 11
-17.921063998881
 21
753.340811412077
  0
LINE
  5
343
100
AcDbEntity
  8
1
  6
CONTINUOUS
 62
           7
100
AcDbLine
 10
-17.13995590575
 20
750.67466658952
 11
-17.368931295726
 21
751.456224937011
  0
LINE
  5
342
100
AcDbEntity
  8
1
  6
CONTINUOUS
 62
           7
100
AcDbLine
 10
-17.142119166119
 20
752.069488556831
 11
-15.061915983417
 21
753.439978960981
  0
LINE
  5
341
100
AcDbEntity
  8
1
  6
CONTINUOUS
 62
           7
100
AcDbLine
 10
-13.262619201089
 20
753.374479195233
 11
-17.13995590575
 21
750.67466658952
  0
LINE
  5
340
100
AcDbEntity
  8
1
  6
CONTINUOUS
 62
           7
100
AcDbLine
 10
-13.509045008822
 20
754.215586810643
 11
-13.262619201089
 21
753.374479195233
  0
LINE
  5
33F
100
AcDbEntity
  8
1
  6
CONTINUOUS
 62
           7
100
AcDbLine
 10
-10.212369087107
 20
723.045268580091
 11
-9.49623907132
 21
720.601080109749
  0
LINE
  5
33E
100
AcDbEntity
  8
1
  6
CONTINUOUS
 62
           7
100
AcDbLine
 10
-4.838281668337
 20
724.619811187143
 11
-10.212369087107
 21
723.045268580091
  0
LINE
  5
33D
100
AcDbEntity
  8
1
  6
CONTINUOUS
 62
           7
100
AcDbLine
 10
-4.122196881936
 20
722.175609465816
 11
-4.838281668337
 21
724.619811187143
  0
LINE
  5
33C
100
AcDbEntity
  8
1
  6
CONTINUOUS
 62
           7
100
AcDbLine
 10
-9.49623907132
 20
720.601080109749
 11
-4.122196881936
 21
722.175609465816
  0
LINE
  5
33B
100
AcDbEntity
  8
1
  6
CONTINUOUS
 62
           7
100
AcDbLine
 10
-9.146484733878
 20
719.407101116721
 11
-9.032221172935
 21
719.017086976432
  0
LINE
  5
33A
100
AcDbEntity
  8
1
  6
CONTINUOUS
 62
           7
100
AcDbLine
 10
-7.065742503539
 20
720.79221388656
 11
-9.146484733878
 21
719.407101116721
  0
LINE
  5
339
100
AcDbEntity
  8
1
  6
CONTINUOUS
 62
           7
100
AcDbLine
 10
-6.921490676735
 20
720.299875779312
 11
-7.065742503539
 21
720.79221388656
  0
LINE
  5
338
100
AcDbEntity
  8
1
  6
CONTINUOUS
 62
           7
100
AcDbLine
 10
11.101264294075
 20
702.503606349183
 11
10.988802280681
 21
702.887471293589
  0
LINE
  5
337
100
AcDbEntity
  8
1
  6
CONTINUOUS
 62
           7
100
AcDbLine
 10
-1.52501338978
 20
698.804449573624
 11
11.101264294075
 21
702.503606349183
  0
LINE
  5
336
100
AcDbEntity
  8
1
  6
CONTINUOUS
 62
           7
100
AcDbLine
 10
11.794989529474
 20
705.191653556931
 11
-3.559608246744
 21
700.693173021174
  0
LINE
  5
335
100
AcDbEntity
  8
1
  6
CONTINUOUS
 62
           7
100
AcDbLine
 10
-3.559608246744
 20
700.693173021174
 11
-5.534378242036
 21
707.433626544812
  0
LINE
  5
334
100
AcDbEntity
  8
1
  6
CONTINUOUS
 62
           7
100
AcDbLine
 10
11.591154173565
 20
703.063944054731
 11
11.794989529474
 21
705.191653556931
  0
LINE
  5
333
100
AcDbEntity
  8
1
  6
CONTINUOUS
 62
           7
100
AcDbLine
 10
-2.239827296075
 20
699.011841756907
 11
-3.559608246744
 21
700.693173021174
  0
LINE
  5
332
100
AcDbEntity
  8
1
  6
CONTINUOUS
 62
           7
100
AcDbLine
 10
-1.637475403174
 20
699.18831451803
 11
-1.52501338978
 21
698.804449573624
  0
LINE
  5
331
100
AcDbEntity
  8
1
  6
CONTINUOUS
 62
           7
100
AcDbLine
 10
10.988802280681
 20
702.887471293589
 11
11.594379642464
 21
703.064889029603
  0
LINE
  5
330
100
AcDbEntity
  8
1
  6
CONTINUOUS
 62
           7
100
AcDbLine
 10
-1.637475403174
 20
699.18831451803
 11
-2.239827296075
 21
699.011841756907
  0
LINE
  5
32F
100
AcDbEntity
  8
1
  6
CONTINUOUS
 62
           7
100
AcDbLine
 10
10.988802280681
 20
702.887471293589
 11
-1.637475403174
 21
699.18831451803
  0
LINE
  5
32E
100
AcDbEntity
  8
1
  6
CONTINUOUS
 62
           7
100
AcDbLine
 10
11.794989529474
 20
705.191653556931
 11
-3.559608246744
 21
700.693173021174
  0
LINE
  5
32D
100
AcDbEntity
  8
1
  6
CONTINUOUS
 62
           7
100
AcDbLine
 10
-5.534378242036
 20
707.433626544812
 11
2.539522391396
 21
708.329151879754
  0
LINE
  5
32C
100
AcDbEntity
  8
1
  6
CONTINUOUS
 62
           7
100
AcDbLine
 10
-5.534378242036
 20
707.433626544812
 11
-21.226995403904
 21
705.693063107383
  0
LINE
  5
32B
100
AcDbEntity
  8
1
  6
CONTINUOUS
 62
           7
100
AcDbLine
 10
-7.036648116732
 20
707.267000672909
 11
-7.003576105749
 21
706.968829175127
  0
LINE
  5
32A
100
AcDbEntity
  8
1
  6
CONTINUOUS
 62
           7
100
AcDbLine
 10
-7.003576105749
 20
706.968829175127
 11
-20.5206840052
 21
705.469564677249
  0
LINE
  5
329
100
AcDbEntity
  8
1
  6
CONTINUOUS
 62
           7
100
AcDbLine
 10
-20.5206840052
 20
705.469564677249
 11
-20.553756016183
 21
705.767736175031
  0
LINE
  5
328
100
AcDbEntity
  8
1
  6
CONTINUOUS
 62
           7
100
AcDbLine
 10
-3.117875674712
 20
718.747574587716
 11
-6.37424956935
 21
719.823909539907
  0
LINE
  5
327
100
AcDbEntity
  8
1
  6
CONTINUOUS
 62
           7
100
AcDbLine
 10
-2.26750998108
 20
715.845033810971
 11
-3.117875674712
 21
718.747574587716
  0
LINE
  5
326
100
AcDbEntity
  8
1
  6
CONTINUOUS
 62
           7
100
AcDbLine
 10
9.738543741436
 20
702.104366201635
 11
9.859526796132
 21
701.691416511659
  0
LINE
  5
325
100
AcDbEntity
  8
1
  6
CONTINUOUS
 62
           7
100
AcDbLine
 10
9.368271048291
 20
698.368397222792
 11
8.673733508551
 21
700.73905204244
  0
LINE
  5
324
100
AcDbEntity
  8
1
  6
CONTINUOUS
 62
           7
100
AcDbLine
 10
9.227452438235
 20
698.849051323575
 11
8.918181901402
 21
699.90467992069
  0
LINE
  5
323
100
AcDbEntity
  8
1
  6
CONTINUOUS
 62
           7
100
AcDbLine
 10
12.913197544286
 20
699.616264688003
 11
13.073299427091
 21
699.069791274557
  0
LINE
  5
322
100
AcDbEntity
  8
1
  6
CONTINUOUS
 62
           7
100
AcDbLine
 10
9.471900831087
 20
698.014679201825
 11
9.311798948281
 21
698.561152615271
  0
LINE
  5
321
100
AcDbEntity
  8
1
  6
CONTINUOUS
 62
           7
100
AcDbLine
 10
6.033728640783
 20
696.402428827373
 11
12.271533987371
 21
698.229936545024
  0
LINE
  5
320
100
AcDbEntity
  8
1
  6
CONTINUOUS
 62
           7
100
AcDbLine
 10
13.073299427091
 20
699.069791274557
 11
12.271533987371
 21
698.229936545024
  0
LINE
  5
31F
100
AcDbEntity
  8
1
  6
CONTINUOUS
 62
           7
100
AcDbLine
 10
8.774990217259
 20
687.045720807491
 11
15.012795563847
 21
688.873228525142
  0
LINE
  5
31E
100
AcDbEntity
  8
1
  6
CONTINUOUS
 62
           7
100
AcDbLine
 10
7.130233271374
 20
692.65974561942
 11
13.368038617962
 21
694.487253337072
  0
LINE
  5
31D
100
AcDbEntity
  8
1
  6
CONTINUOUS
 62
           2
100
AcDbLine
 10
12.251302962913
 20
695.097909931847
 11
14.402138969072
 21
687.756492870093
  0
LINE
  5
31C
100
AcDbEntity
  8
1
  6
CONTINUOUS
 62
           7
100
AcDbLine
 10
6.877193741237
 20
693.523441744332
 11
12.251302962913
 21
695.097909931847
  0
LINE
  5
31B
100
AcDbEntity
  8
1
  6
CONTINUOUS
 62
           7
100
AcDbLine
 10
11.119939154155
 20
697.892550504843
 11
11.963404254609
 21
695.013563421802
  0
LINE
  5
31A
100
AcDbEntity
  8
1
  6
CONTINUOUS
 62
           7
100
AcDbLine
 10
14.164661404437
 20
687.322206782019
 11
15.012795563847
 21
688.873228525142
  0
LINE
  5
319
100
AcDbEntity
  8
1
  6
CONTINUOUS
 62
           7
100
AcDbLine
 10
14.164661404437
 20
687.322206782019
 11
9.126434009115
 21
685.846142856224
  0
LINE
  5
318
100
AcDbEntity
  8
1
  6
CONTINUOUS
 62
           7
100
AcDbLine
 10
12.251302962913
 20
695.097909931847
 11
13.368038617962
 21
694.487253337072
  0
LINE
  5
317
100
AcDbEntity
  8
1
  6
CONTINUOUS
 62
           7
100
AcDbLine
 10
13.368038617962
 20
694.487253337072
 11
15.012795563847
 21
688.873228525142
  0
LINE
  5
316
100
AcDbEntity
  8
1
  6
CONTINUOUS
 62
           7
100
AcDbLine
 10
11.146913853432
 20
702.068585989079
 11
4.909108506844
 21
700.241078271428
  0
LINE
  5
315
100
AcDbEntity
  8
1
  6
CONTINUOUS
 62
           7
100
AcDbLine
 10
-2.130462279465
 20
697.573715824244
 11
-1.328696839745
 21
698.413570553777
  0
LINE
  5
314
100
AcDbEntity
  8
1
  6
CONTINUOUS
 62
           7
100
AcDbLine
 10
4.909108506844
 20
700.241078271428
 11
-1.328696839745
 21
698.413570553777
  0
LINE
  5
313
100
AcDbEntity
  8
1
  6
CONTINUOUS
 62
           7
100
AcDbLine
 10
11.146913853432
 20
702.068585989079
 11
10.147425504437
 21
701.775763021704
  0
LINE
  5
312
100
AcDbEntity
  8
1
  6
CONTINUOUS
 62
           7
100
AcDbLine
 10
12.275132104556
 20
701.794164115171
 11
11.146913853432
 21
702.068585989079
  0
LINE
  5
311
100
AcDbEntity
  8
1
  6
CONTINUOUS
 62
           2
100
AcDbLine
 10
12.251302962913
 20
695.097909931847
 11
14.402138969072
 21
687.756492870093
  0
LINE
  5
310
100
AcDbEntity
  8
1
  6
CONTINUOUS
 62
           7
100
AcDbLine
 10
12.251302962913
 20
695.097909931847
 11
11.963404254609
 21
695.013563421802
  0
LINE
  5
30F
100
AcDbEntity
  8
1
  6
CONTINUOUS
 62
           7
100
AcDbLine
 10
11.119939154155
 20
697.892550504843
 11
11.963404254609
 21
695.013563421802
  0
LINE
  5
30E
100
AcDbEntity
  8
1
  6
CONTINUOUS
 62
           7
100
AcDbLine
 10
14.164661404437
 20
687.322206782019
 11
15.012795563847
 21
688.873228525142
  0
LINE
  5
30D
100
AcDbEntity
  8
1
  6
CONTINUOUS
 62
           7
100
AcDbLine
 10
14.164661404437
 20
687.322206782019
 11
9.126434009115
 21
685.846142856224
  0
LINE
  5
30C
100
AcDbEntity
  8
1
  6
CONTINUOUS
 62
           7
100
AcDbLine
 10
12.251302962913
 20
695.097909931847
 11
13.368038617962
 21
694.487253337072
  0
LINE
  5
30B
100
AcDbEntity
  8
1
  6
CONTINUOUS
 62
           7
100
AcDbLine
 10
13.368038617962
 20
694.487253337072
 11
15.012795563847
 21
688.873228525142
  0
LINE
  5
30A
100
AcDbEntity
  8
1
  6
CONTINUOUS
 62
           7
100
AcDbLine
 10
10.147425504437
 20
701.775763021704
 11
9.859526796132
 21
701.691416511659
  0
LINE
  5
309
100
AcDbEntity
  8
1
  6
CONTINUOUS
 62
           7
100
AcDbLine
 10
-0.177102006528
 20
698.750956593958
 11
-0.298085061225
 21
699.163906283934
  0
LINE
  5
308
100
AcDbEntity
  8
1
  6
CONTINUOUS
 62
           7
100
AcDbLine
 10
2.537184870671
 20
685.21821308984
 11
0.892427924785
 21
690.832237901769
  0
LINE
  5
307
100
AcDbEntity
  8
1
  6
CONTINUOUS
 62
           7
100
AcDbLine
 10
0.892427924785
 20
690.832237901769
 11
1.503084519561
 21
691.948973556817
  0
LINE
  5
306
100
AcDbEntity
  8
1
  6
CONTINUOUS
 62
           7
100
AcDbLine
 10
9.126434009115
 20
685.846142856224
 11
4.088206613794
 21
684.370078930428
  0
LINE
  5
305
100
AcDbEntity
  8
1
  6
CONTINUOUS
 62
           7
100
AcDbLine
 10
2.537184870671
 20
685.21821308984
 11
4.088206613794
 21
684.370078930428
  0
LINE
  5
304
100
AcDbEntity
  8
1
  6
CONTINUOUS
 62
           7
100
AcDbLine
 10
1.790983227865
 20
692.033320066863
 11
0.947518127411
 21
694.912307149904
  0
LINE
  5
303
100
AcDbEntity
  8
1
  6
CONTINUOUS
 62
           7
100
AcDbLine
 10
1.503084519561
 20
691.948973556817
 11
6.877193741237
 21
693.523441744332
  0
LINE
  5
302
100
AcDbEntity
  8
1
  6
CONTINUOUS
 62
           2
100
AcDbLine
 10
3.653920525719
 20
684.607556495064
 11
1.503084519561
 21
691.948973556817
  0
LINE
  5
301
100
AcDbEntity
  8
1
  6
CONTINUOUS
 62
           7
100
AcDbLine
 10
0.892427924785
 20
690.832237901769
 11
7.130233271374
 21
692.65974561942
  0
LINE
  5
300
100
AcDbEntity
  8
1
  6
CONTINUOUS
 62
           7
100
AcDbLine
 10
2.537184870671
 20
685.21821308984
 11
8.774990217259
 21
687.045720807491
  0
LINE
  5
2FF
100
AcDbEntity
  8
1
  6
CONTINUOUS
 62
           6
100
AcDbLine
 10
-1.576743349781
 20
695.683715105379
 11
-1.886013886614
 21
696.739343702494
  0
LINE
  5
2FE
100
AcDbEntity
  8
1
  6
CONTINUOUS
 62
           7
100
AcDbLine
 10
12.275132104556
 20
701.794164115171
 11
12.94027731319
 21
699.523833709123
  0
LINE
  5
2FD
100
AcDbEntity
  8
1
  6
CONTINUOUS
 62
           7
100
AcDbLine
 10
-0.204076705805
 20
694.574921109722
 11
-1.33229495693
 21
694.84934298363
  0
LINE
  5
2FC
100
AcDbEntity
  8
1
  6
CONTINUOUS
 62
           7
100
AcDbLine
 10
-0.204076705805
 20
694.574921109722
 11
6.033728640783
 21
696.402428827373
  0
LINE
  5
2FB
100
AcDbEntity
  8
1
  6
CONTINUOUS
 62
           7
100
AcDbLine
 10
12.271533987371
 20
698.229936545024
 11
13.073299427091
 21
699.069791274557
  0
LINE
  5
2FA
100
AcDbEntity
  8
1
  6
CONTINUOUS
 62
           7
100
AcDbLine
 10
12.271533987371
 20
698.229936545024
 11
11.119939154155
 21
697.892550504843
  0
LINE
  5
2F9
100
AcDbEntity
  8
1
  6
CONTINUOUS
 62
           7
100
AcDbLine
 10
2.10900175627
 20
696.450928469807
 11
2.269103639076
 21
695.904455056361
  0
LINE
  5
2F8
100
AcDbEntity
  8
1
  6
CONTINUOUS
 62
           7
100
AcDbLine
 10
12.913197544286
 20
699.616264688003
 11
13.073299427091
 21
699.069791274557
  0
LINE
  5
2F7
100
AcDbEntity
  8
1
  6
CONTINUOUS
 62
           7
100
AcDbLine
 10
12.519580497407
 20
700.959791993422
 11
12.832455038912
 21
699.891861899906
  0
LINE
  5
2F6
100
AcDbEntity
  8
1
  6
CONTINUOUS
 62
           7
100
AcDbLine
 10
-1.410783272096
 20
695.11724600109
 11
-2.130462279465
 21
697.573715824244
  0
LINE
  5
2F5
100
AcDbEntity
  8
1
  6
CONTINUOUS
 62
           7
100
AcDbLine
 10
-1.33229495693
 20
694.84934298363
 11
-1.492396839735
 21
695.395816397075
  0
LINE
  5
2F4
100
AcDbEntity
  8
1
  6
CONTINUOUS
 62
           6
100
AcDbLine
 10
1.715384709392
 20
697.794455775226
 11
2.024655246225
 21
696.738827178111
  0
LINE
  5
2F3
100
AcDbEntity
  8
1
  6
CONTINUOUS
 62
           7
100
AcDbLine
 10
1.470936316541
 20
698.628827896976
 11
2.16547385628
 21
696.258173077328
  0
LINE
  5
2F2
100
AcDbEntity
  8
1
  6
CONTINUOUS
 62
           7
100
AcDbLine
 10
-13.002068118892
 20
699.36661072703
 11
-10.082608947241
 21
699.690425667446
  0
LINE
  5
2F1
100
AcDbEntity
  8
1
  6
CONTINUOUS
 62
           7
100
AcDbLine
 10
-6.486565648644
 20
699.586218468682
 11
-12.946948100588
 21
698.869658230726
  0
LINE
  5
2F0
100
AcDbEntity
  8
1
  6
CONTINUOUS
 62
           7
100
AcDbLine
 10
-6.486565648644
 20
699.586218468682
 11
-5.990485483905
 21
695.113646001952
  0
LINE
  5
2EF
100
AcDbEntity
  8
1
  6
CONTINUOUS
 62
           7
100
AcDbLine
 10
-6.486565648644
 20
699.586218468682
 11
-7.038638163252
 21
700.028050946681
  0
LINE
  5
2EE
100
AcDbEntity
  8
1
  6
CONTINUOUS
 62
           7
100
AcDbLine
 10
-10.082608947241
 20
699.690425667446
 11
-7.038638163252
 21
700.028050946681
  0
LINE
  5
2ED
100
AcDbEntity
  8
1
  6
CONTINUOUS
 62
           7
100
AcDbLine
 10
-12.450867935849
 20
694.397085763996
 11
-5.990485483905
 21
695.113646001952
  0
LINE
  5
2EC
100
AcDbEntity
  8
1
  6
CONTINUOUS
 62
           3
100
AcDbLine
 10
-12.690437477267
 20
698.898109381204
 11
-12.194357312528
 21
694.425536914474
  0
LINE
  5
2EB
100
AcDbEntity
  8
1
  6
CONTINUOUS
 62
           3
100
AcDbLine
 10
-12.09071412016
 20
694.437032610145
 11
-12.586794284899
 21
698.909605076875
  0
LINE
  5
2EA
100
AcDbEntity
  8
1
  6
CONTINUOUS
 62
           3
100
AcDbLine
 10
-11.320938248819
 20
699.050008854698
 11
-10.82485808408
 21
694.577436387968
  0
LINE
  5
2E9
100
AcDbEntity
  8
1
  6
CONTINUOUS
 62
           3
100
AcDbLine
 10
-10.334012039026
 20
694.631879102692
 11
-10.830092203765
 21
699.104451569422
  0
LINE
  5
2E8
100
AcDbEntity
  8
1
  6
CONTINUOUS
 62
           3
100
AcDbLine
 10
-10.115913219232
 20
694.656069766848
 11
-10.611993383971
 21
699.128642233578
  0
LINE
  5
2E7
100
AcDbEntity
  8
1
  6
CONTINUOUS
 62
           3
100
AcDbLine
 10
-9.47004815644
 20
699.255302311376
 11
-8.973967991701
 21
694.782729844646
  0
LINE
  5
2E6
100
AcDbEntity
  8
1
  6
CONTINUOUS
 62
           3
100
AcDbLine
 10
-8.682108884497
 20
694.815101710068
 11
-9.178189049236
 21
699.287674176798
  0
LINE
  5
2E5
100
AcDbEntity
  8
1
  6
CONTINUOUS
 62
           3
100
AcDbLine
 10
-8.86698363408
 20
699.322191858684
 11
-8.370903469342
 21
694.849619391954
  0
LINE
  5
2E4
100
AcDbEntity
  8
1
  6
CONTINUOUS
 62
           3
100
AcDbLine
 10
-7.464650605631
 20
694.950137398821
 11
-7.96073077037
 21
699.422709865551
  0
LINE
  5
2E3
100
AcDbEntity
  8
1
  6
CONTINUOUS
 62
           3
100
AcDbLine
 10
-7.896427803929
 20
699.429842097935
 11
-7.40034763919
 21
694.957269631205
  0
LINE
  5
2E2
100
AcDbEntity
  8
1
  6
CONTINUOUS
 62
           3
100
AcDbLine
 10
-7.026498583005
 20
694.998735499619
 11
-7.522578747744
 21
699.471307966349
  0
LINE
  5
2E1
100
AcDbEntity
  8
1
  6
CONTINUOUS
 62
           3
100
AcDbLine
 10
-6.44464842765
 20
695.063272032693
 11
-6.940728592389
 21
699.535844499423
  0
LINE
  5
2E0
100
AcDbEntity
  8
1
  6
CONTINUOUS
 62
           3
100
AcDbLine
 10
-6.710378442257
 20
699.561394033002
 11
-6.214298277518
 21
695.088821566272
  0
LINE
  5
2DF
100
AcDbEntity
  8
1
  6
CONTINUOUS
 62
           7
100
AcDbLine
 10
-6.874150439904
 20
694.009500972737
 11
-12.34062789924
 21
693.403180771389
  0
LINE
  5
2DE
100
AcDbEntity
  8
1
  6
CONTINUOUS
 62
           7
100
AcDbLine
 10
-10.169438889963
 20
699.680794831364
 11
-10.444444665467
 21
702.160199063053
  0
LINE
  5
2DD
100
AcDbEntity
  8
1
  6
CONTINUOUS
 62
           7
100
AcDbLine
 10
-16.109703123325
 20
701.531830854384
 11
-15.834697347821
 21
699.052426622695
  0
LINE
  5
2DC
100
AcDbEntity
  8
1
  6
CONTINUOUS
 62
           7
100
AcDbLine
 10
-12.34062789924
 20
693.403180771389
 11
-17.807105358577
 21
692.796860570042
  0
LINE
  5
2DB
100
AcDbEntity
  8
1
  6
CONTINUOUS
 62
           3
100
AcDbLine
 10
-18.68743759418
 20
693.70534996172
 11
-19.183517758919
 21
698.17792242845
  0
LINE
  5
2DA
100
AcDbEntity
  8
1
  6
CONTINUOUS
 62
           3
100
AcDbLine
 10
-18.953167608787
 20
698.20347196203
 11
-18.457087444048
 21
693.7308994953
  0
LINE
  5
2D9
100
AcDbEntity
  8
1
  6
CONTINUOUS
 62
           3
100
AcDbLine
 10
-18.371317453432
 20
698.268008495103
 11
-17.875237288693
 21
693.795436028373
  0
LINE
  5
2D8
100
AcDbEntity
  8
1
  6
CONTINUOUS
 62
           3
100
AcDbLine
 10
-17.501388232508
 20
693.836901896787
 11
-17.997468397247
 21
698.309474363518
  0
LINE
  5
2D7
100
AcDbEntity
  8
1
  6
CONTINUOUS
 62
           3
100
AcDbLine
 10
-17.933165430806
 20
698.316606595901
 11
-17.437085266067
 21
693.844034129171
  0
LINE
  5
2D6
100
AcDbEntity
  8
1
  6
CONTINUOUS
 62
           3
100
AcDbLine
 10
-16.530832402356
 20
693.944552136038
 11
-17.026912567095
 21
698.417124602768
  0
LINE
  5
2D5
100
AcDbEntity
  8
1
  6
CONTINUOUS
 62
           3
100
AcDbLine
 10
-16.71570715194
 20
698.451642284654
 11
-16.219626987201
 21
693.979069817924
  0
LINE
  5
2D4
100
AcDbEntity
  8
1
  6
CONTINUOUS
 62
           3
100
AcDbLine
 10
-15.927767879996
 20
694.011441683346
 11
-16.423848044735
 21
698.484014150076
  0
LINE
  5
2D3
100
AcDbEntity
  8
1
  6
CONTINUOUS
 62
           3
100
AcDbLine
 10
-15.281902817205
 20
698.610674227875
 11
-14.785822652466
 21
694.138101761145
  0
LINE
  5
2D2
100
AcDbEntity
  8
1
  6
CONTINUOUS
 62
           3
100
AcDbLine
 10
-15.063803997411
 20
698.63486489203
 11
-14.567723832672
 21
694.1622924253
  0
LINE
  5
2D1
100
AcDbEntity
  8
1
  6
CONTINUOUS
 62
           3
100
AcDbLine
 10
-14.076877787618
 20
694.216735140025
 11
-14.572957952357
 21
698.689307606755
  0
LINE
  5
2D0
100
AcDbEntity
  8
1
  6
CONTINUOUS
 62
           3
100
AcDbLine
 10
-13.307101916277
 20
698.829711384577
 11
-12.811021751538
 21
694.357138917847
  0
LINE
  5
2CF
100
AcDbEntity
  8
1
  6
CONTINUOUS
 62
           3
100
AcDbLine
 10
-12.70737855917
 20
694.368634613518
 11
-13.203458723909
 21
698.841207080248
  0
LINE
  5
2CE
100
AcDbEntity
  8
1
  6
CONTINUOUS
 62
           7
100
AcDbLine
 10
-18.911250387793
 20
693.68052552604
 11
-12.450867935849
 21
694.397085763996
  0
LINE
  5
2CD
100
AcDbEntity
  8
1
  6
CONTINUOUS
 62
           7
100
AcDbLine
 10
-18.965498074532
 20
698.705170507378
 11
-15.921527290543
 21
699.042795786613
  0
LINE
  5
2CC
100
AcDbEntity
  8
1
  6
CONTINUOUS
 62
           7
100
AcDbLine
 10
-18.965498074532
 20
698.705170507378
 11
-19.407330552531
 21
698.15309799277
  0
LINE
  5
2CB
100
AcDbEntity
  8
1
  6
CONTINUOUS
 62
           7
100
AcDbLine
 10
-18.911250387793
 20
693.68052552604
 11
-19.407330552531
 21
698.15309799277
  0
LINE
  5
2CA
100
AcDbEntity
  8
1
  6
CONTINUOUS
 62
           7
100
AcDbLine
 10
-12.946948100588
 20
698.869658230726
 11
-19.407330552531
 21
698.15309799277
  0
LINE
  5
2C9
100
AcDbEntity
  8
1
  6
CONTINUOUS
 62
           7
100
AcDbLine
 10
-15.921527290543
 20
699.042795786613
 11
-13.002068118892
 21
699.36661072703
  0
LINE
  5
2C8
100
AcDbEntity
  8
1
  6
CONTINUOUS
 62
           7
100
AcDbLine
 10
-20.222512507418
 20
705.502636688232
 11
-20.752711481017
 21
704.840149670702
  0
LINE
  5
2C7
100
AcDbEntity
  8
1
  6
CONTINUOUS
 62
           7
100
AcDbLine
 10
-6.330588483497
 20
703.622624211246
 11
-6.639260586001
 21
706.405558190545
  0
LINE
  5
2C6
100
AcDbEntity
  8
1
  6
CONTINUOUS
 62
           7
100
AcDbLine
 10
-9.139987115631
 20
702.653418850869
 11
-9.520710985857
 21
706.085959033756
  0
LINE
  5
2C5
100
AcDbEntity
  8
1
  6
CONTINUOUS
 62
           7
100
AcDbLine
 10
-10.476101615494
 20
702.505222280297
 11
-10.85682548572
 21
705.937762463184
  0
LINE
  5
2C4
100
AcDbEntity
  8
1
  6
CONTINUOUS
 62
           7
100
AcDbLine
 10
-13.277073894397
 20
701.846014958718
 11
-7.214253439495
 21
702.518479182031
  0
LINE
  5
2C3
100
AcDbEntity
  8
1
  6
CONTINUOUS
 62
           7
100
AcDbLine
 10
-6.639260586001
 20
706.405558190545
 11
-7.30174760353
 21
706.935757164144
  0
LINE
  5
2C2
100
AcDbEntity
  8
1
  6
CONTINUOUS
 62
           7
100
AcDbLine
 10
-10.476101615494
 20
702.505222280297
 11
-9.139987115631
 21
702.653418850869
  0
LINE
  5
2C1
100
AcDbEntity
  8
1
  6
CONTINUOUS
 62
           7
100
AcDbLine
 10
-10.85682548572
 20
705.937762463184
 11
-9.520710985857
 21
706.085959033756
  0
LINE
  5
2C0
100
AcDbEntity
  8
1
  6
CONTINUOUS
 62
           7
100
AcDbLine
 10
-17.871261081162
 20
705.159748827492
 11
-16.535146581299
 21
705.307945398064
  0
LINE
  5
2BF
100
AcDbEntity
  8
1
  6
CONTINUOUS
 62
           7
100
AcDbLine
 10
-17.490537210936
 20
701.727208644605
 11
-16.154422711073
 21
701.875405215176
  0
LINE
  5
2BE
100
AcDbEntity
  8
1
  6
CONTINUOUS
 62
           7
100
AcDbLine
 10
-19.339894349298
 20
701.173550735406
 11
-13.277073894397
 21
701.846014958718
  0
LINE
  5
2BD
100
AcDbEntity
  8
1
  6
CONTINUOUS
 62
           7
100
AcDbLine
 10
-16.535146581299
 20
705.307945398064
 11
-16.154422711073
 21
701.875405215176
  0
LINE
  5
2BC
100
AcDbEntity
  8
1
  6
CONTINUOUS
 62
           7
100
AcDbLine
 10
-17.871261081162
 20
705.159748827492
 11
-17.490537210936
 21
701.727208644605
  0
LINE
  5
2BB
100
AcDbEntity
  8
1
  6
CONTINUOUS
 62
           7
100
AcDbLine
 10
-20.752711481017
 20
704.840149670702
 11
-20.444039378513
 21
702.057215691404
  0
LINE
  5
2BA
100
AcDbEntity
  8
1
  6
CONTINUOUS
 62
           7
100
AcDbLine
 10
-98.140773537474
 20
774.433056156076
 11
-100.377059768604
 21
774.185016073954
  0
LINE
  5
2B9
100
AcDbEntity
  8
1
  6
DOT_CENTER
 62
           2
100
AcDbLine
 10
-106.613169521717
 20
786.413791204443
 11
-106.653785309342
 21
786.321137796589
  0
LINE
  5
2B8
100
AcDbEntity
  8
1
  6
CONTINUOUS
 62
           7
100
AcDbLine
 10
-106.613169521717
 20
786.413791204443
 11
-105.437728198638
 21
785.898521704383
  0
LINE
  5
2B7
100
AcDbEntity
  8
1
  6
CONTINUOUS
 62
           7
100
AcDbLine
 10
-107.635808976678
 20
786.86207808219
 11
-106.613169521717
 21
786.413791204443
  0
LINE
  5
2B6
100
AcDbEntity
  8
1
  6
CONTINUOUS
 62
           7
100
AcDbLine
 10
-108.148862490407
 20
787.559771490536
 11
-108.259102527016
 21
788.553676483143
  0
LINE
  5
2B5
100
AcDbEntity
  8
1
  6
CONTINUOUS
 62
           7
100
AcDbLine
 10
-107.817270049017
 20
789.105748997751
 11
-108.259102527016
 21
788.553676483143
  0
LINE
  5
2B4
100
AcDbEntity
  8
1
  6
CONTINUOUS
 62
           7
100
AcDbLine
 10
-107.817270049017
 20
789.105748997751
 11
-102.251402090419
 21
789.723093202759
  0
LINE
  5
2B3
100
AcDbEntity
  8
1
  6
CONTINUOUS
 62
           7
100
AcDbLine
 10
-103.37556292157
 20
784.659211504143
 11
-103.737968841689
 21
783.169268419167
  0
LINE
  5
2B2
100
AcDbEntity
  8
1
  6
CONTINUOUS
 62
           7
100
AcDbLine
 10
-103.737968841689
 20
783.169268419167
 11
-103.704896830706
 21
782.871096921386
  0
LINE
  5
2B1
100
AcDbEntity
  8
1
  6
CONTINUOUS
 62
           7
100
AcDbLine
 10
-108.148862490407
 20
787.559771490536
 11
-107.635808976678
 21
786.86207808219
  0
LINE
  5
2B0
100
AcDbEntity
  8
1
  6
CONTINUOUS
 62
           3
100
AcDbLine
 10
-108.093742472103
 20
787.062818994233
 11
-108.148862490407
 21
787.559771490536
  0
LINE
  5
2AF
100
AcDbEntity
  8
1
  6
CONTINUOUS
 62
           3
100
AcDbLine
 10
-108.093742472103
 20
787.062818994233
 11
-107.635808976678
 21
786.86207808219
  0
LINE
  5
2AE
100
AcDbEntity
  8
1
  6
CONTINUOUS
 62
           7
100
AcDbLine
 10
-102.11885234702
 20
789.888714957141
 11
-102.251402090419
 21
789.723093202759
  0
LINE
  5
2AD
100
AcDbEntity
  8
1
  6
CONTINUOUS
 62
           7
100
AcDbLine
 10
-103.062290688502
 20
785.081795958339
 11
-103.119228906177
 21
784.847708436622
  0
LINE
  5
2AC
100
AcDbEntity
  8
1
  6
CONTINUOUS
 62
           7
100
AcDbLine
 10
-103.37556292157
 20
784.659211504143
 11
-103.119228906177
 21
784.847708436622
  0
LINE
  5
2AB
100
AcDbEntity
  8
1
  6
CONTINUOUS
 62
           7
100
AcDbLine
 10
-105.437728198637
 20
785.898521704381
 11
-103.927818318138
 21
786.06599497571
  0
LINE
  5
2AA
100
AcDbEntity
  8
1
  6
CONTINUOUS
 62
           7
100
AcDbLine
 10
-103.704896830706
 20
782.871096921386
 11
-103.583632790437
 21
781.777801429517
  0
LINE
  5
2A9
100
AcDbEntity
  8
1
  6
CONTINUOUS
 62
           7
100
AcDbLine
 10
-102.251402090419
 20
789.723093202759
 11
-101.397041806702
 21
782.020329510056
  0
LINE
  5
2A8
100
AcDbEntity
  8
1
  6
CONTINUOUS
 62
           7
100
AcDbLine
 10
-102.788508796351
 20
781.865993458804
 11
-103.119228906177
 21
784.847708436622
  0
LINE
  5
2A7
100
AcDbEntity
  8
1
  6
CONTINUOUS
 62
           7
100
AcDbLine
 10
-108.179200691106
 20
787.833295430381
 11
-104.103223865188
 21
786.04653968162
  0
LINE
  5
2A6
100
AcDbEntity
  8
1
  6
CONTINUOUS
 62
           7
100
AcDbLine
 10
-103.119228906177
 20
784.847708436622
 11
-102.15179673235
 21
788.825068621851
  0
LINE
  5
2A5
100
AcDbEntity
  8
1
  6
CONTINUOUS
 62
           7
100
AcDbLine
 10
-103.37556292157
 20
784.659211504143
 11
-103.062380873928
 21
781.835616644036
  0
LINE
  5
2A4
100
AcDbEntity
  8
1
  6
CONTINUOUS
 62
           2
100
AcDbLine
 10
-108.148862490407
 20
787.559771490536
 11
-108.380979948557
 21
787.87542437309
  0
LINE
  5
2A3
100
AcDbEntity
  8
1
  6
CONTINUOUS
 62
           7
100
AcDbLine
 10
-102.11885234702
 20
789.888714957141
 11
-99.882566115891
 21
790.136755039262
  0
LINE
  5
2A2
100
AcDbEntity
  8
1
  6
CONTINUOUS
 62
           2
100
AcDbLine
 10
-106.928166718793
 20
774.777113026254
 11
-106.770862032799
 21
775.135959082951
  0
LINE
  5
2A1
100
AcDbEntity
  8
1
  6
CONTINUOUS
 62
           7
100
AcDbLine
 10
-103.062380873928
 20
781.835616644036
 11
-102.749198826285
 21
779.012021783928
  0
LINE
  5
2A0
100
AcDbEntity
  8
1
  6
CONTINUOUS
 62
           7
100
AcDbLine
 10
-100.642286881053
 20
775.215590398262
 11
-102.457788686526
 21
778.884278480986
  0
LINE
  5
29F
100
AcDbEntity
  8
1
  6
CONTINUOUS
 62
           7
100
AcDbLine
 10
-103.155159550354
 20
777.498956745206
 11
-106.740523832099
 21
774.862435143106
  0
LINE
  5
29E
100
AcDbEntity
  8
1
  6
CONTINUOUS
 62
           7
100
AcDbLine
 10
-102.457788686526
 20
778.884278480986
 11
-102.788508796351
 21
781.865993458804
  0
LINE
  5
29D
100
AcDbEntity
  8
1
  6
CONTINUOUS
 62
           7
100
AcDbLine
 10
-101.397041806702
 20
782.020329510056
 11
-100.542681522985
 21
774.317565817354
  0
LINE
  5
29C
100
AcDbEntity
  8
1
  6
CONTINUOUS
 62
           7
100
AcDbLine
 10
-103.583632790437
 20
781.777801429517
 11
-103.462368750167
 21
780.684505937649
  0
LINE
  5
29B
100
AcDbEntity
  8
1
  6
CONTINUOUS
 62
           7
100
AcDbLine
 10
-102.979754003304
 20
777.518412039295
 11
-104.489663883803
 21
777.350938767966
  0
LINE
  5
29A
100
AcDbEntity
  8
1
  6
CONTINUOUS
 62
           7
100
AcDbLine
 10
-102.457788686526
 20
778.884278480986
 11
-102.749198826285
 21
779.012021783928
  0
LINE
  5
299
100
AcDbEntity
  8
1
  6
CONTINUOUS
 62
           7
100
AcDbLine
 10
-102.457788686526
 20
778.884278480986
 11
-102.350937333236
 21
778.668357854932
  0
LINE
  5
298
100
AcDbEntity
  8
1
  6
CONTINUOUS
 62
           7
100
AcDbLine
 10
-100.542681522985
 20
774.317565817354
 11
-100.377059768604
 21
774.185016073954
  0
LINE
  5
297
100
AcDbEntity
  8
1
  6
CONTINUOUS
 62
           3
100
AcDbLine
 10
-106.423168573982
 20
775.929123163514
 11
-106.825982051103
 21
775.632911579254
  0
LINE
  5
296
100
AcDbEntity
  8
1
  6
CONTINUOUS
 62
           3
100
AcDbLine
 10
-106.770862032799
 20
775.135959082951
 11
-106.825982051103
 21
775.632911579254
  0
LINE
  5
295
100
AcDbEntity
  8
1
  6
CONTINUOUS
 62
           7
100
AcDbLine
 10
-106.423168573982
 20
775.929123163514
 11
-106.770862032799
 21
775.135959082951
  0
LINE
  5
294
100
AcDbEntity
  8
1
  6
CONTINUOUS
 62
           7
100
AcDbLine
 10
-103.462368750167
 20
780.684505937649
 11
-103.429296739184
 21
780.386334439868
  0
LINE
  5
293
100
AcDbEntity
  8
1
  6
CONTINUOUS
 62
           7
100
AcDbLine
 10
-103.429296739184
 20
780.386334439868
 11
-102.749198826285
 21
779.012021783928
  0
LINE
  5
292
100
AcDbEntity
  8
1
  6
CONTINUOUS
 62
           7
100
AcDbLine
 10
-100.542681522985
 20
774.317565817354
 11
-106.108549481582
 21
773.700221612345
  0
LINE
  5
291
100
AcDbEntity
  8
1
  6
CONTINUOUS
 62
           7
100
AcDbLine
 10
-106.66062199619
 20
774.142054090344
 11
-106.108549481582
 21
773.700221612345
  0
LINE
  5
290
100
AcDbEntity
  8
1
  6
CONTINUOUS
 62
           7
100
AcDbLine
 10
-106.66062199619
 20
774.142054090344
 11
-106.770862032799
 21
775.135959082951
  0
LINE
  5
28F
100
AcDbEntity
  8
1
  6
CONTINUOUS
 62
           7
100
AcDbLine
 10
-105.52362102219
 20
776.590611471548
 11
-106.423168573982
 21
775.929123163514
  0
LINE
  5
28E
100
AcDbEntity
  8
1
  6
CONTINUOUS
 62
           7
100
AcDbLine
 10
-104.489663883803
 20
777.350938767964
 11
-105.52362102219
 21
776.590611471548
  0
LINE
  5
28D
100
AcDbEntity
  8
1
  6
DOT_CENTER
 62
           2
100
AcDbLine
 10
-105.583553333326
 20
776.672112479353
 11
-105.52362102219
 21
776.590611471548
  0
LINE
  5
28C
100
AcDbEntity
  8
1
  6
CONTINUOUS
 62
           7
100
AcDbLine
 10
-85.043624575013
 20
774.275928643818
 11
-83.707362361042
 21
774.424141598258
  0
LINE
  5
28B
100
AcDbEntity
  8
1
  6
CONTINUOUS
 62
           2
100
AcDbLine
 10
-85.080677813623
 20
774.60999419731
 11
-83.707362361042
 21
774.424141598258
  0
LINE
  5
28A
100
AcDbEntity
  8
1
  6
CONTINUOUS
 62
           2
100
AcDbLine
 10
-87.101132031967
 20
792.826057949852
 11
-85.801923056606
 21
793.308336457785
  0
LINE
  5
289
100
AcDbEntity
  8
1
  6
CONTINUOUS
 62
           2
100
AcDbLine
 10
-84.754642708824
 20
783.866239028021
 11
-83.707362361042
 21
774.424141598258
  0
LINE
  5
288
100
AcDbEntity
  8
1
  6
CONTINUOUS
 62
           2
100
AcDbLine
 10
-84.467727051309
 20
783.898062585427
 11
-85.570127417396
 21
793.837112511494
  0
LINE
  5
287
100
AcDbEntity
  8
1
  6
CONTINUOUS
 62
           2
100
AcDbLine
 10
-84.257690212521
 20
783.921359046326
 11
-83.155289846434
 21
773.982309120259
  0
LINE
  5
286
100
AcDbEntity
  8
1
  6
CONTINUOUS
 62
           2
100
AcDbLine
 10
-85.360090578607
 20
793.860408972393
 11
-84.257690212521
 21
783.921359046326
  0
LINE
  5
285
100
AcDbEntity
  8
1
  6
CONTINUOUS
 62
           2
100
AcDbLine
 10
-83.365326685222
 20
773.95901265936
 11
-84.467727051309
 21
783.898062585427
  0
LINE
  5
284
100
AcDbEntity
  8
1
  6
CONTINUOUS
 62
           2
100
AcDbLine
 10
-85.801923056606
 20
793.308336457785
 11
-84.754642708824
 21
783.866239028021
  0
LINE
  5
283
100
AcDbEntity
  8
1
  6
CONTINUOUS
 62
           2
100
AcDbLine
 10
-83.760737716217
 20
783.97647906463
 11
-84.914166808955
 21
794.375595113184
  0
LINE
  5
282
100
AcDbEntity
  8
1
  6
CONTINUOUS
 62
           7
100
AcDbLine
 10
-83.365326685222
 20
773.95901265936
 11
-83.155289846434
 21
773.982309120259
  0
LINE
  5
281
100
AcDbEntity
  8
1
  6
CONTINUOUS
 62
           7
100
AcDbLine
 10
-83.707362361042
 20
774.424141598258
 11
-83.365326685222
 21
773.95901265936
  0
LINE
  5
280
100
AcDbEntity
  8
1
  6
CONTINUOUS
 62
           7
100
AcDbLine
 10
-85.570127417396
 20
793.837112511494
 11
-85.360090578607
 21
793.860408972393
  0
LINE
  5
27F
100
AcDbEntity
  8
1
  6
CONTINUOUS
 62
           7
100
AcDbLine
 10
-85.801923056606
 20
793.308336457785
 11
-85.570127417396
 21
793.837112511494
  0
LINE
  5
27E
100
AcDbEntity
  8
1
  6
CONTINUOUS
 62
           7
100
AcDbLine
 10
-85.801923056606
 20
793.308336457785
 11
-87.138185270577
 21
793.160123503345
  0
LINE
  5
27D
100
AcDbEntity
  8
1
  6
CONTINUOUS
 62
           7
100
AcDbLine
 10
-83.155289846434
 20
773.982309120259
 11
-82.995733248467
 21
773.854613418705
  0
LINE
  5
27C
100
AcDbEntity
  8
1
  6
CONTINUOUS
 62
           7
100
AcDbLine
 10
-85.232394877054
 20
794.01996557036
 11
-85.360090578607
 21
793.860408972393
  0
LINE
  5
27B
100
AcDbEntity
  8
1
  6
CONTINUOUS
 62
           7
100
AcDbLine
 10
-82.995733248467
 20
773.854613418705
 11
-82.926613923471
 21
773.799296115574
  0
LINE
  5
27A
100
AcDbEntity
  8
1
  6
CONTINUOUS
 62
           2
100
AcDbLine
 10
-82.613119122658
 20
773.629749465872
 11
-83.760737716217
 21
783.97647906463
  0
LINE
  5
279
100
AcDbEntity
  8
1
  6
CONTINUOUS
 62
           7
100
AcDbLine
 10
-65.814455499429
 20
789.991539712317
 11
-65.373495352994
 21
786.01591974189
  0
LINE
  5
278
100
AcDbEntity
  8
1
  6
CONTINUOUS
 62
           7
100
AcDbLine
 10
-64.906935305568
 20
781.80949551751
 11
-65.373495352994
 21
786.01591974189
  0
LINE
  5
277
100
AcDbEntity
  8
1
  6
CONTINUOUS
 62
           7
100
AcDbLine
 10
-68.019256231602
 20
809.869639564451
 11
-69.013161224208
 21
809.759399527842
  0
LINE
  5
276
100
AcDbEntity
  8
1
  6
CONTINUOUS
 62
           7
100
AcDbLine
 10
-67.300951330516
 20
812.464642082576
 11
-67.135591275603
 21
810.973784593666
  0
LINE
  5
275
100
AcDbEntity
  8
1
  6
CONTINUOUS
 62
           7
100
AcDbLine
 10
-70.337786326641
 20
812.630874469054
 11
-70.117306253424
 21
810.64306448384
  0
LINE
  5
274
100
AcDbEntity
  8
1
  6
CONTINUOUS
 62
           7
100
AcDbLine
 10
-80.476597100918
 20
773.961929220937
 11
-66.147469827294
 21
779.733866021291
  0
LINE
  5
273
100
AcDbEntity
  8
1
  6
CONTINUOUS
 62
           7
100
AcDbLine
 10
-82.191528404178
 20
773.58613956054
 11
-81.793585576597
 21
773.63027781541
  0
LINE
  5
272
100
AcDbEntity
  8
1
  6
CONTINUOUS
 62
           7
100
AcDbLine
 10
-85.076863164664
 20
794.214303442372
 11
-85.232394877054
 21
794.01996557036
  0
LINE
  5
271
100
AcDbEntity
  8
1
  6
CONTINUOUS
 62
           6
100
AcDbLine
 10
-106.712342782803
 20
774.608359705052
 11
-106.646888848414
 21
774.018238419027
  0
LINE
  5
270
100
AcDbEntity
  8
1
  6
CONTINUOUS
 62
           7
100
AcDbLine
 10
-103.528512772132
 20
781.280848933213
 11
-103.807878335143
 21
781.249862802625
  0
LINE
  5
26F
100
AcDbEntity
  8
1
  6
CONTINUOUS
 62
           7
100
AcDbLine
 10
-103.671824819724
 20
782.572925423602
 11
-103.951190382735
 21
782.541939293013
  0
LINE
  5
26E
100
AcDbEntity
  8
1
  6
CONTINUOUS
 62
           7
100
AcDbLine
 10
-103.862998353448
 20
781.746815298928
 11
-103.774806324161
 21
780.951691304842
  0
LINE
  5
26D
100
AcDbEntity
  8
1
  6
CONTINUOUS
 62
           7
100
AcDbLine
 10
-103.774806324161
 20
780.951691304842
 11
-103.49544076115
 21
780.982677435431
  0
LINE
  5
26C
100
AcDbEntity
  8
1
  6
CONTINUOUS
 62
           7
100
AcDbLine
 10
-103.918118371752
 20
782.243767795231
 11
-103.638752808741
 21
782.27475392582
  0
LINE
  5
26B
100
AcDbEntity
  8
1
  6
CONTINUOUS
 62
           7
100
AcDbLine
 10
-103.951190382735
 20
782.541939293013
 11
-103.862998353448
 21
781.746815298928
  0
LINE
  5
26A
100
AcDbEntity
  8
1
  6
CONTINUOUS
 62
           7
100
AcDbLine
 10
-104.224970289841
 20
781.706666793974
 11
-103.823165318741
 21
781.385095838427
  0
LINE
  5
269
100
AcDbEntity
  8
1
  6
CONTINUOUS
 62
           7
100
AcDbLine
 10
-103.903399334295
 20
782.108471765073
 11
-104.224970289841
 21
781.706666793974
  0
LINE
  5
268
100
AcDbEntity
  8
1
  6
CONTINUOUS
 62
           7
100
AcDbLine
 10
-103.903399334293
 20
782.108471765073
 11
-103.863282326517
 21
781.746783801751
  0
LINE
  5
267
100
AcDbEntity
  8
1
  6
CONTINUOUS
 62
           7
100
AcDbLine
 10
-103.863282326517
 20
781.746783801751
 11
-103.823165318741
 21
781.385095838427
  0
LINE
  5
266
100
AcDbEntity
  8
1
  6
CONTINUOUS
 62
           7
100
AcDbLine
 10
-84.933384538404
 20
773.282023651211
 11
-85.375217016404
 21
772.729951136603
  0
LINE
  5
265
100
AcDbEntity
  8
1
  6
CONTINUOUS
 62
           7
100
AcDbLine
 10
-91.835599468347
 20
772.013390898647
 11
-92.387671982955
 21
772.455223376646
  0
LINE
  5
264
100
AcDbEntity
  8
1
  6
CONTINUOUS
 62
           7
100
AcDbLine
 10
-91.835599468347
 20
772.013390898647
 11
-85.375217016404
 21
772.729951136603
  0
LINE
  5
263
100
AcDbEntity
  8
1
  6
CONTINUOUS
 62
           7
100
AcDbLine
 10
-96.860244449685
 20
771.959143211907
 11
-92.387671982955
 21
772.455223376646
  0
LINE
  5
262
100
AcDbEntity
  8
1
  6
CONTINUOUS
 62
           7
100
AcDbLine
 10
-86.090904922795
 20
783.718026073581
 11
-84.933384538404
 21
773.282023651211
  0
LINE
  5
261
100
AcDbEntity
  8
1
  6
CONTINUOUS
 62
           7
100
AcDbLine
 10
-92.387671982955
 20
772.455223376646
 11
-93.545192367345
 21
782.891225799016
  0
LINE
  5
260
100
AcDbEntity
  8
1
  6
CONTINUOUS
 62
           7
100
AcDbLine
 10
-91.835599468347
 20
772.013390898647
 11
-93.048239871042
 21
782.94634581732
  0
LINE
  5
25F
100
AcDbEntity
  8
1
  6
CONTINUOUS
 62
           7
100
AcDbLine
 10
-85.375217016404
 20
772.729951136603
 11
-86.587857419099
 21
783.662906055277
  0
LINE
  5
25E
100
AcDbEntity
  8
1
  6
CONTINUOUS
 62
           7
100
AcDbLine
 10
-92.837667074949
 20
781.047858119178
 11
-86.377284623005
 21
781.764418357134
  0
LINE
  5
25D
100
AcDbEntity
  8
1
  6
CONTINUOUS
 62
           7
100
AcDbLine
 10
-86.173109974766
 20
779.923615247018
 11
-92.63349242671
 21
779.207055009062
  0
LINE
  5
25C
100
AcDbEntity
  8
1
  6
CONTINUOUS
 62
           7
100
AcDbLine
 10
-85.981537217751
 20
778.19642859594
 11
-92.441919669695
 21
777.479868357984
  0
LINE
  5
25B
100
AcDbEntity
  8
1
  6
CONTINUOUS
 62
           7
100
AcDbLine
 10
-92.268769645184
 20
775.918777858336
 11
-85.808387193241
 21
776.635338096292
  0
LINE
  5
25A
100
AcDbEntity
  8
1
  6
CONTINUOUS
 62
           7
100
AcDbLine
 10
-92.119303429056
 20
774.571216455
 11
-85.658920977112
 21
775.287776692956
  0
LINE
  5
259
100
AcDbEntity
  8
1
  6
CONTINUOUS
 62
           7
100
AcDbLine
 10
-85.537680024709
 20
774.194689357275
 11
-91.998062476653
 21
773.478129119319
  0
LINE
  5
258
100
AcDbEntity
  8
1
  6
CONTINUOUS
 62
           7
100
AcDbLine
 10
-91.926072489673
 20
772.829079920155
 11
-85.46569003773
 21
773.545640158111
  0
LINE
  5
257
100
AcDbEntity
  8
1
  6
CONTINUOUS
 62
           2
100
AcDbLine
 10
-85.393639748909
 20
772.896047288034
 11
-91.854022200852
 21
772.179487050078
  0
LINE
  5
256
100
AcDbEntity
  8
1
  6
CONTINUOUS
 62
           7
100
AcDbLine
 10
-99.011669826682
 20
782.284905597668
 11
-97.9643894789
 21
772.842808167905
  0
LINE
  5
255
100
AcDbEntity
  8
1
  6
CONTINUOUS
 62
           7
100
AcDbLine
 10
-100.058950174464
 20
791.727003027431
 11
-99.011669826682
 21
782.284905597668
  0
LINE
  5
254
100
AcDbEntity
  8
1
  6
CONTINUOUS
 62
           2
100
AcDbLine
 10
-94.242457541232
 20
793.713204584562
 11
-87.782075089288
 21
794.429764822518
  0
LINE
  5
253
100
AcDbEntity
  8
1
  6
CONTINUOUS
 62
           7
100
AcDbLine
 10
-87.710024800467
 20
793.780171952442
 11
-94.170407252411
 21
793.063611714486
  0
LINE
  5
252
100
AcDbEntity
  8
1
  6
CONTINUOUS
 62
           7
100
AcDbLine
 10
-94.098417265431
 20
792.414562515321
 11
-87.638034813488
 21
793.131122753277
  0
LINE
  5
251
100
AcDbEntity
  8
1
  6
CONTINUOUS
 62
           7
100
AcDbLine
 10
-87.516793861085
 20
792.038035417596
 11
-93.977176313028
 21
791.32147517964
  0
LINE
  5
250
100
AcDbEntity
  8
1
  6
CONTINUOUS
 62
           7
100
AcDbLine
 10
-87.367327644956
 20
790.690474014261
 11
-93.8277100969
 21
789.973913776305
  0
LINE
  5
24F
100
AcDbEntity
  8
1
  6
CONTINUOUS
 62
           7
100
AcDbLine
 10
-93.65456007239
 20
788.412823276656
 11
-87.194177620446
 21
789.129383514612
  0
LINE
  5
24E
100
AcDbEntity
  8
1
  6
CONTINUOUS
 62
           7
100
AcDbLine
 10
-93.462987315374
 20
786.685636625578
 11
-87.002604863431
 21
787.402196863534
  0
LINE
  5
24D
100
AcDbEntity
  8
1
  6
CONTINUOUS
 62
           7
100
AcDbLine
 10
-86.798430215192
 20
785.561393753419
 11
-93.258812667135
 21
784.844833515463
  0
LINE
  5
24C
100
AcDbEntity
  8
1
  6
CONTINUOUS
 62
           7
100
AcDbLine
 10
-86.587857419098
 20
783.662906055276
 11
-87.800497821794
 21
794.595860973949
  0
LINE
  5
24B
100
AcDbEntity
  8
1
  6
CONTINUOUS
 62
           7
100
AcDbLine
 10
-93.048239871042
 20
782.94634581732
 11
-94.260880273737
 21
793.879300735993
  0
LINE
  5
24A
100
AcDbEntity
  8
1
  6
CONTINUOUS
 62
           7
100
AcDbLine
 10
-93.545192367345
 20
782.891225799016
 11
-94.702712751736
 21
793.327228221385
  0
LINE
  5
249
100
AcDbEntity
  8
1
  6
CONTINUOUS
 62
           7
100
AcDbLine
 10
-87.248425307186
 20
794.15402849595
 11
-86.090904922795
 21
783.71802607358
  0
LINE
  5
248
100
AcDbEntity
  8
1
  6
CONTINUOUS
 62
           7
100
AcDbLine
 10
-94.702712751736
 20
793.327228221385
 11
-99.175285218466
 21
792.831148056647
  0
LINE
  5
247
100
AcDbEntity
  8
1
  6
CONTINUOUS
 62
           7
100
AcDbLine
 10
-87.800497821794
 20
794.595860973949
 11
-94.260880273737
 21
793.879300735993
  0
LINE
  5
246
100
AcDbEntity
  8
1
  6
CONTINUOUS
 62
           7
100
AcDbLine
 10
-94.702712751736
 20
793.327228221385
 11
-94.260880273737
 21
793.879300735993
  0
LINE
  5
245
100
AcDbEntity
  8
1
  6
CONTINUOUS
 62
           7
100
AcDbLine
 10
-87.800497821794
 20
794.595860973949
 11
-87.248425307186
 21
794.15402849595
  0
LINE
  5
244
100
AcDbEntity
  8
1
  6
CONTINUOUS
 62
           7
100
AcDbLine
 10
-86.587857419098
 20
783.662906055276
 11
-93.048239871042
 21
782.94634581732
  0
LINE
  5
243
100
AcDbEntity
  8
1
  6
CONTINUOUS
 62
           7
100
AcDbLine
 10
-24.250655915437
 20
798.038780982182
 11
-25.05804597878
 21
797.949228448688
  0
LINE
  5
242
100
AcDbEntity
  8
1
  6
CONTINUOUS
 62
           7
100
AcDbLine
 10
-29.911448833835
 20
783.785286561716
 11
-19.892642838353
 21
784.896533157651
  0
LINE
  5
241
100
AcDbEntity
  8
1
  6
CONTINUOUS
 62
           7
100
AcDbLine
 10
-29.1850501468
 20
812.035871375571
 11
-24.616394084155
 21
796.441744500458
  0
LINE
  5
240
100
AcDbEntity
  8
1
  6
DOT_CENTER
 62
           2
100
AcDbLine
 10
-53.443146115456
 20
805.449570121332
 11
-53.759535020523
 21
808.302077450113
  0
LINE
  5
23F
100
AcDbEntity
  8
1
  6
DOT_CENTER
 62
           2
100
AcDbLine
 10
-53.443146115456
 20
805.449570121332
 11
-50.590638786675
 21
805.765959026398
  0
LINE
  5
23E
100
AcDbEntity
  8
1
  6
CONTINUOUS
 62
           7
100
AcDbLine
 10
-45.892957497903
 20
788.176624459419
 11
-46.333917644337
 21
792.152244429846
  0
LINE
  5
23D
100
AcDbEntity
  8
1
  6
CONTINUOUS
 62
           7
100
AcDbLine
 10
-45.403775190387
 20
783.766241873453
 11
-45.892957497903
 21
788.176624459419
  0
LINE
  5
23C
100
AcDbEntity
  8
1
  6
CONTINUOUS
 62
           7
100
AcDbLine
 10
-27.011545090566
 20
807.462483597293
 11
-24.250655915437
 21
798.038780982182
  0
LINE
  5
23B
100
AcDbEntity
  8
1
  6
CONTINUOUS
 62
           7
100
AcDbLine
 10
-29.234562255556
 20
812.204870331762
 11
-29.1850501468
 21
812.035871375571
  0
LINE
  5
23A
100
AcDbEntity
  8
1
  6
CONTINUOUS
 62
           7
100
AcDbLine
 10
-28.41732025799
 20
812.26079540236
 11
-27.011545090566
 21
807.462483597293
  0
LINE
  5
239
100
AcDbEntity
  8
1
  6
CONTINUOUS
 62
           7
100
AcDbLine
 10
-29.1850501468
 20
812.035871375571
 11
-28.41732025799
 21
812.26079540236
  0
LINE
  5
238
100
AcDbEntity
  8
1
  6
CONTINUOUS
 62
           7
100
AcDbLine
 10
-48.542207702768
 20
793.919574341842
 11
-64.047125587433
 21
792.199829770747
  0
LINE
  5
237
100
AcDbEntity
  8
1
  6
CONTINUOUS
 62
           7
100
AcDbLine
 10
-62.826634200657
 20
822.016107217384
 11
-61.832729208051
 21
822.126347253993
  0
LINE
  5
236
100
AcDbEntity
  8
1
  6
DOT_CENTER
 62
           2
100
AcDbLine
 10
-53.126757210389
 20
802.59706279255
 11
-53.443146115456
 21
805.449570121332
  0
LINE
  5
235
100
AcDbEntity
  8
1
  6
DOT_CENTER
 62
           2
100
AcDbLine
 10
-56.295653444237
 20
805.133181216265
 11
-53.443146115456
 21
805.449570121332
  0
LINE
  5
234
100
AcDbEntity
  8
1
  6
CONTINUOUS
 62
           7
100
AcDbLine
 10
-58.355806397056
 20
813.456802412054
 11
-57.665588941671
 21
807.233921905157
  0
LINE
  5
233
100
AcDbEntity
  8
1
  6
CONTINUOUS
 62
           7
100
AcDbLine
 10
-43.682929092116
 20
782.004619456114
 11
-35.407771697441
 21
780.890061458396
  0
LINE
  5
232
100
AcDbEntity
  8
1
  6
DOT_CENTER
 62
           2
100
AcDbLine
 10
-58.14682659701
 20
804.927856363639
 11
-49.467526145029
 21
805.890530267766
  0
LINE
  5
231
100
AcDbEntity
  8
1
  6
CONTINUOUS
 62
           7
100
AcDbLine
 10
-49.467526145029
 20
805.890530267766
 11
-49.689750881375
 21
798.822955282911
  0
LINE
  5
230
100
AcDbEntity
  8
1
  6
CONTINUOUS
 62
           7
100
AcDbLine
 10
-57.418766085883
 20
805.008609974897
 11
-55.653180837015
 21
798.161515063259
  0
LINE
  5
22F
100
AcDbEntity
  8
1
  6
CONTINUOUS
 62
           7
100
AcDbLine
 10
-36.141634108913
 20
795.163410160955
 11
-24.616394084155
 21
796.441744500458
  0
LINE
  5
22E
100
AcDbEntity
  8
1
  6
CONTINUOUS
 62
           7
100
AcDbLine
 10
-54.659275844409
 20
798.271755099867
 11
-55.100235990843
 21
802.247375070294
  0
LINE
  5
22D
100
AcDbEntity
  8
1
  6
CONTINUOUS
 62
           7
100
AcDbLine
 10
-51.124616020417
 20
802.688335216729
 11
-50.683655873982
 21
798.712715246302
  0
LINE
  5
22C
100
AcDbEntity
  8
1
  6
CONTINUOUS
 62
           7
100
AcDbLine
 10
-55.100235990843
 20
802.247375070294
 11
-51.124616020417
 21
802.688335216729
  0
LINE
  5
22B
100
AcDbEntity
  8
1
  6
CONTINUOUS
 62
           7
100
AcDbLine
 10
-46.058317552816
 20
789.667481948329
 11
-50.532066172561
 21
789.171271329319
  0
LINE
  5
22A
100
AcDbEntity
  8
1
  6
CONTINUOUS
 62
           7
100
AcDbLine
 10
-50.7371988377
 20
786.13012166713
 11
-45.72759744299
 21
786.685766970509
  0
LINE
  5
229
100
AcDbEntity
  8
1
  6
CONTINUOUS
 62
           6
100
AcDbLine
 10
-58.521658870603
 20
786.021299234592
 11
-58.516146868773
 21
785.971603984961
  0
LINE
  5
228
100
AcDbEntity
  8
1
  6
CONTINUOUS
 62
           2
100
AcDbLine
 10
-59.382752420341
 20
787.434988697876
 11
-59.217392365428
 21
785.944131208966
  0
LINE
  5
227
100
AcDbEntity
  8
1
  6
CONTINUOUS
 62
           7
100
AcDbLine
 10
-58.687018925516
 20
787.512156723502
 11
-58.521658870603
 21
786.021299234592
  0
LINE
  5
226
100
AcDbEntity
  8
1
  6
CONTINUOUS
 62
           2
100
AcDbLine
 10
-57.991285430692
 20
787.589324749128
 11
-57.825925375779
 21
786.098467260218
  0
LINE
  5
225
100
AcDbEntity
  8
1
  6
CONTINUOUS
 62
           7
100
AcDbLine
 10
-56.20776844583
 20
787.837452064655
 11
-55.613153653144
 21
787.903404401147
  0
LINE
  5
224
100
AcDbEntity
  8
1
  6
CONTINUOUS
 62
           7
100
AcDbLine
 10
-61.00090935029
 20
785.696003893439
 11
-65.285303323707
 21
785.220795747803
  0
LINE
  5
223
100
AcDbEntity
  8
1
  6
CONTINUOUS
 62
           7
100
AcDbLine
 10
-61.00642135212
 20
785.74569914307
 11
-56.036896389087
 21
786.296899326114
  0
LINE
  5
222
100
AcDbEntity
  8
1
  6
CONTINUOUS
 62
           7
100
AcDbLine
 10
-61.171781407033
 20
787.23655663198
 11
-56.202256444
 21
787.787756815024
  0
LINE
  5
221
100
AcDbEntity
  8
1
  6
CONTINUOUS
 62
           7
100
AcDbLine
 10
-56.20776844583
 20
787.837452064655
 11
-56.031384387256
 21
786.247204076482
  0
LINE
  5
220
100
AcDbEntity
  8
1
  6
CONTINUOUS
 62
           7
100
AcDbLine
 10
-61.177293408864
 20
787.286251881612
 11
-61.00090935029
 21
785.696003893439
  0
LINE
  5
21F
100
AcDbEntity
  8
1
  6
CONTINUOUS
 62
           7
100
AcDbLine
 10
-55.524838132471
 20
786.303388196782
 11
-56.031384387256
 21
786.247204076482
  0
LINE
  5
21E
100
AcDbEntity
  8
1
  6
CONTINUOUS
 62
           7
100
AcDbLine
 10
-65.461687382281
 20
786.811043735975
 11
-61.177293408864
 21
787.286251881612
  0
LINE
  5
21D
100
AcDbEntity
  8
1
  6
LONG_DASHED
 62
           2
100
AcDbLine
 10
-51.966287560632
 20
804.834030675768
 11
-50.212518026779
 21
804.103077584161
  0
LINE
  5
21C
100
AcDbEntity
  8
1
  6
LONG_DASHED
 62
           2
100
AcDbLine
 10
-54.749221539931
 20
804.525358573263
 11
-56.300186106495
 21
803.427857359933
  0
LINE
  5
21B
100
AcDbEntity
  8
1
  6
DOT_CENTER
 62
           2
100
AcDbLine
 10
-53.443146115456
 20
805.449570121332
 11
-53.759535020523
 21
808.302077450113
  0
LINE
  5
21A
100
AcDbEntity
  8
1
  6
DOT_CENTER
 62
           2
100
AcDbLine
 10
-56.295653444237
 20
805.133181216265
 11
-53.443146115456
 21
805.449570121332
  0
LINE
  5
219
100
AcDbEntity
  8
1
  6
DOT_CENTER
 62
           2
100
AcDbLine
 10
-53.443146115456
 20
805.449570121332
 11
-50.590638786675
 21
805.765959026398
  0
LINE
  5
218
100
AcDbEntity
  8
1
  6
CONTINUOUS
 62
           2
100
AcDbLine
 10
-18.086685133142
 20
810.077225408699
 11
-14.43996816129
 21
811.145614535939
  0
LINE
  5
217
100
AcDbEntity
  8
1
  6
CONTINUOUS
 62
           2
100
AcDbLine
 10
-16.101270101935
 20
816.816112136341
 11
-19.747987073787
 21
815.747723009099
  0
LINE
  5
216
100
AcDbEntity
  8
1
  6
CONTINUOUS
 62
           2
100
AcDbLine
 10
-19.671880994716
 20
815.48795124324
 11
-16.025164022865
 21
816.556340370482
  0
LINE
  5
215
100
AcDbEntity
  8
1
  6
CONTINUOUS
 62
           2
100
AcDbLine
 10
-15.900892569688
 20
816.132166438101
 11
-19.54760954154
 21
815.063777310859
  0
LINE
  5
214
100
AcDbEntity
  8
1
  6
CONTINUOUS
 62
           2
100
AcDbLine
 10
-19.378948639477
 20
814.488089522247
 11
-15.732231667626
 21
815.556478649489
  0
LINE
  5
213
100
AcDbEntity
  8
1
  6
CONTINUOUS
 62
           2
100
AcDbLine
 10
-15.52430599284
 20
814.846768986792
 11
-19.171022964692
 21
813.77837985955
  0
LINE
  5
212
100
AcDbEntity
  8
1
  6
CONTINUOUS
 62
           2
100
AcDbLine
 10
-18.930150233596
 20
812.956212491739
 11
-15.283433261744
 21
814.024601618981
  0
LINE
  5
211
100
AcDbEntity
  8
1
  6
CONTINUOUS
 62
           2
100
AcDbLine
 10
-15.016932270385
 20
813.114957685488
 11
-18.663649242237
 21
812.046568558247
  0
LINE
  5
210
100
AcDbEntity
  8
1
  6
CONTINUOUS
 62
           2
100
AcDbLine
 10
-14.732900516529
 20
812.145476256933
 11
-18.379617488381
 21
811.077087129691
  0
LINE
  5
20F
100
AcDbEntity
  8
1
  6
CONTINUOUS
 62
           7
100
AcDbLine
 10
-14.757123177014
 20
815.429235982333
 11
-15.129368395363
 21
815.632788180591
  0
LINE
  5
20E
100
AcDbEntity
  8
1
  6
CONTINUOUS
 62
           7
100
AcDbLine
 10
-15.754653143849
 20
816.700036503763
 11
-16.126898362199
 21
816.903588702022
  0
LINE
  5
20D
100
AcDbEntity
  8
1
  6
CONTINUOUS
 62
           7
100
AcDbLine
 10
-19.77361533405
 20
815.835199574779
 11
-19.977167532309
 21
815.46295435643
  0
LINE
  5
20C
100
AcDbEntity
  8
1
  6
CONTINUOUS
 62
           7
100
AcDbLine
 10
-19.077471425158
 20
812.392034801186
 11
-21.476627327691
 21
811.689147217474
  0
LINE
  5
20B
100
AcDbEntity
  8
1
  6
CONTINUOUS
 62
           7
100
AcDbLine
 10
-19.077471425158
 20
812.392034801186
 11
-19.977167532309
 21
815.46295435643
  0
LINE
  5
20A
100
AcDbEntity
  8
1
  6
CONTINUOUS
 62
           7
100
AcDbLine
 10
-19.77361533405
 20
815.835199574779
 11
-16.126898362199
 21
816.903588702022
  0
LINE
  5
209
100
AcDbEntity
  8
1
  6
CONTINUOUS
 62
           7
100
AcDbLine
 10
-15.754653143849
 20
816.700036503763
 11
-15.417267103667
 21
815.548441670546
  0
LINE
  5
208
100
AcDbEntity
  8
1
  6
CONTINUOUS
 62
           7
100
AcDbLine
 10
-15.417267103667
 20
815.548441670546
 11
-15.129368395363
 21
815.632788180591
  0
LINE
  5
207
100
AcDbEntity
  8
1
  6
CONTINUOUS
 62
           7
100
AcDbLine
 10
-14.757123177014
 20
815.429235982333
 11
-13.576272036378
 21
811.398654066076
  0
LINE
  5
206
100
AcDbEntity
  8
1
  6
CONTINUOUS
 62
           7
100
AcDbLine
 10
-15.417267103667
 20
815.548441670546
 11
-14.152069452986
 21
811.229961045985
  0
LINE
  5
205
100
AcDbEntity
  8
1
  6
CONTINUOUS
 62
           7
100
AcDbLine
 10
-15.129368395363
 20
815.632788180591
 11
-13.864170744682
 21
811.31430755603
  0
LINE
  5
204
100
AcDbEntity
  8
1
  6
CONTINUOUS
 62
           7
100
AcDbLine
 10
-16.126898362199
 20
816.903588702022
 11
-14.43996816129
 21
811.145614535939
  0
LINE
  5
203
100
AcDbEntity
  8
1
  6
CONTINUOUS
 62
           7
100
AcDbLine
 10
-19.77361533405
 20
815.835199574779
 11
-18.086685133142
 21
810.077225408698
  0
LINE
  5
202
100
AcDbEntity
  8
1
  6
CONTINUOUS
 62
           7
100
AcDbLine
 10
-19.077471425158
 20
812.392034801186
 11
-18.374583841446
 21
809.992878898652
  0
LINE
  5
201
100
AcDbEntity
  8
1
  6
CONTINUOUS
 62
           7
100
AcDbLine
 10
-18.374583841446
 20
809.992878898653
 11
-17.671696257734
 21
807.59372299612
  0
LINE
  5
200
100
AcDbEntity
  8
1
  6
CONTINUOUS
 62
           7
100
AcDbLine
 10
-18.086685133142
 20
810.077225408699
 11
-16.399754932233
 21
804.319251242617
  0
LINE
  5
1FF
100
AcDbEntity
  8
1
  6
CONTINUOUS
 62
           7
100
AcDbLine
 10
-14.43996816129
 20
811.145614535941
 11
-12.753037960382
 21
805.387640369859
  0
LINE
  5
1FE
100
AcDbEntity
  8
1
  6
CONTINUOUS
 62
           7
100
AcDbLine
 10
-13.864170744682
 20
811.314307556032
 11
-12.598973094001
 21
806.995826931471
  0
LINE
  5
1FD
100
AcDbEntity
  8
1
  6
CONTINUOUS
 62
           7
100
AcDbLine
 10
-14.152069452986
 20
811.229961045987
 11
-12.886871802305
 21
806.911480421425
  0
LINE
  5
1FC
100
AcDbEntity
  8
1
  6
CONTINUOUS
 62
           7
100
AcDbLine
 10
-13.576272036378
 20
811.398654066076
 11
-12.395420895742
 21
807.368072149821
  0
LINE
  5
1FB
100
AcDbEntity
  8
1
  6
CONTINUOUS
 62
           7
100
AcDbLine
 10
-12.598973094001
 20
806.995826931471
 11
-12.886871802305
 21
806.911480421425
  0
LINE
  5
1FA
100
AcDbEntity
  8
1
  6
CONTINUOUS
 62
           7
100
AcDbLine
 10
-12.886871802305
 20
806.911480421425
 11
-12.549485762123
 21
805.759885588209
  0
LINE
  5
1F9
100
AcDbEntity
  8
1
  6
CONTINUOUS
 62
           7
100
AcDbLine
 10
-12.753037960382
 20
805.387640369859
 11
-16.399754932233
 21
804.319251242617
  0
LINE
  5
1F8
100
AcDbEntity
  8
1
  6
CONTINUOUS
 62
           7
100
AcDbLine
 10
-16.772000150583
 20
804.522803440875
 11
-17.671696257734
 21
807.59372299612
  0
LINE
  5
1F7
100
AcDbEntity
  8
1
  6
CONTINUOUS
 62
           7
100
AcDbLine
 10
-20.070852160268
 20
806.890835412408
 11
-17.671696257734
 21
807.59372299612
  0
LINE
  5
1F6
100
AcDbEntity
  8
1
  6
CONTINUOUS
 62
           7
100
AcDbLine
 10
-16.772000150583
 20
804.522803440875
 11
-16.399754932233
 21
804.319251242617
  0
LINE
  5
1F5
100
AcDbEntity
  8
1
  6
CONTINUOUS
 62
           7
100
AcDbLine
 10
-12.753037960382
 20
805.387640369859
 11
-12.549485762123
 21
805.759885588209
  0
LINE
  5
1F4
100
AcDbEntity
  8
1
  6
CONTINUOUS
 62
           7
100
AcDbLine
 10
-12.598973094001
 20
806.995826931471
 11
-12.395420895742
 21
807.368072149821
  0
LINE
  5
1F3
100
AcDbEntity
  8
1
  6
CONTINUOUS
 62
           2
100
AcDbLine
 10
-17.793752777903
 20
809.077363687706
 11
-14.147035806051
 21
810.145752814948
  0
LINE
  5
1F2
100
AcDbEntity
  8
1
  6
CONTINUOUS
 62
           2
100
AcDbLine
 10
-17.509721024047
 20
808.10788225915
 11
-13.863004052195
 21
809.176271386393
  0
LINE
  5
1F1
100
AcDbEntity
  8
1
  6
CONTINUOUS
 62
           2
100
AcDbLine
 10
-13.596503060836
 20
808.2666274529
 11
-17.243220032688
 21
807.198238325659
  0
LINE
  5
1F0
100
AcDbEntity
  8
1
  6
CONTINUOUS
 62
           2
100
AcDbLine
 10
-17.002347301592
 20
806.376070957846
 11
-13.35563032974
 21
807.444460085089
  0
LINE
  5
1EF
100
AcDbEntity
  8
1
  6
CONTINUOUS
 62
           2
100
AcDbLine
 10
-13.147704654955
 20
806.734750422392
 11
-16.794421626807
 21
805.66636129515
  0
LINE
  5
1EE
100
AcDbEntity
  8
1
  6
CONTINUOUS
 62
           2
100
AcDbLine
 10
-16.625760724744
 20
805.090673506538
 11
-12.979043752892
 21
806.15906263378
  0
LINE
  5
1ED
100
AcDbEntity
  8
1
  6
CONTINUOUS
 62
           2
100
AcDbLine
 10
-12.854772299716
 20
805.734888701399
 11
-16.501489271567
 21
804.666499574156
  0
LINE
  5
1EC
100
AcDbEntity
  8
1
  6
CONTINUOUS
 62
           2
100
AcDbLine
 10
-16.425383192497
 20
804.406727808298
 11
-12.778666220645
 21
805.47511693554
  0
LINE
  5
1EB
100
AcDbEntity
  8
1
  6
CONTINUOUS
 62
           7
100
AcDbLine
 10
-26.723646382261
 20
807.546830107323
 11
-28.129421549681
 21
812.345141912332
  0
LINE
  5
1EA
100
AcDbEntity
  8
1
  6
CONTINUOUS
 62
           7
100
AcDbLine
 10
-28.129421549697
 20
812.345141912389
 11
-27.91832780054
 21
813.213002105561
  0
LINE
  5
1E9
100
AcDbEntity
  8
1
  6
CONTINUOUS
 62
           7
100
AcDbLine
 10
-27.118821444088
 20
810.484058760102
 11
-22.026050654608
 21
811.976102420487
  0
LINE
  5
1E8
100
AcDbEntity
  8
1
  6
CONTINUOUS
 62
           7
100
AcDbLine
 10
-27.91832780054
 20
813.213002105561
 11
-22.82555701106
 21
814.705045765946
  0
LINE
  5
1E7
100
AcDbEntity
  8
1
  6
CONTINUOUS
 62
           7
100
AcDbLine
 10
-22.82555701106
 20
814.705045765946
 11
-22.179514911417
 21
814.08830312001
  0
LINE
  5
1E6
100
AcDbEntity
  8
1
  6
CONTINUOUS
 62
           7
100
AcDbLine
 10
-22.179514911417
 20
814.08830312001
 11
-20.77373974398
 21
809.289991314943
  0
LINE
  5
1E5
100
AcDbEntity
  8
1
  6
CONTINUOUS
 62
           7
100
AcDbLine
 10
-27.988844032954
 20
811.865310731882
 11
-28.276742741258
 21
811.780964221837
  0
LINE
  5
1E4
100
AcDbEntity
  8
1
  6
CONTINUOUS
 62
           7
100
AcDbLine
 10
-25.746347439887
 20
803.144002972728
 11
-25.458448731583
 21
803.228349482774
  0
LINE
  5
1E3
100
AcDbEntity
  8
1
  6
CONTINUOUS
 62
           7
100
AcDbLine
 10
-20.77373974398
 20
809.289991314943
 11
-19.367964576556
 21
804.491679509872
  0
LINE
  5
1E2
100
AcDbEntity
  8
1
  6
CONTINUOUS
 62
           7
100
AcDbLine
 10
-19.367964576556
 20
804.491679509872
 11
-19.579058325716
 21
803.6238193167
  0
LINE
  5
1E1
100
AcDbEntity
  8
1
  6
CONTINUOUS
 62
           7
100
AcDbLine
 10
-19.579058325716
 20
803.6238193167
 11
-24.6718291152
 21
802.131775656329
  0
LINE
  5
1E0
100
AcDbEntity
  8
1
  6
CONTINUOUS
 62
           7
100
AcDbLine
 10
-20.37856468216
 20
806.352762662161
 11
-25.471335471645
 21
804.86071900179
  0
LINE
  5
1DF
100
AcDbEntity
  8
1
  6
CONTINUOUS
 62
           7
100
AcDbLine
 10
-24.6718291152
 20
802.131775656329
 11
-25.31787121484
 21
802.748518302267
  0
LINE
  5
1DE
100
AcDbEntity
  8
1
  6
CONTINUOUS
 62
           7
100
AcDbLine
 10
-25.317871214857
 20
802.748518302323
 11
-26.723646382265
 21
807.546830107337
  0
LINE
  5
1DD
100
AcDbEntity
  8
1
  6
CONTINUOUS
 62
           7
100
AcDbLine
 10
-4.912395522027
 20
785.176034493858
 11
-5.210567019809
 21
785.142962482876
  0
LINE
  5
1DC
100
AcDbEntity
  8
1
  6
CONTINUOUS
 62
           7
100
AcDbLine
 10
-6.565996071157
 20
800.084609382959
 11
-4.912395522027
 21
785.176034493858
  0
LINE
  5
1DB
100
AcDbEntity
  8
1
  6
CONTINUOUS
 62
           7
100
AcDbLine
 10
-6.864167568939
 20
800.051537371976
 11
-5.210567019809
 21
785.142962482876
  0
LINE
  5
1DA
100
AcDbEntity
  8
1
  6
CONTINUOUS
 62
           7
100
AcDbLine
 10
-6.864167568939
 20
800.051537371976
 11
-6.565996071157
 21
800.084609382959
  0
LINE
  5
1D9
100
AcDbEntity
  8
1
  6
CONTINUOUS
 62
           7
100
AcDbLine
 10
-7.416240083546
 20
800.493369849975
 11
-24.417326753889
 21
798.607676115799
  0
LINE
  5
1D8
100
AcDbEntity
  8
1
  6
CONTINUOUS
 62
           7
100
AcDbLine
 10
-5.652399497808
 20
784.590889968268
 11
-7.920623486717
 21
784.339307475541
  0
LINE
  5
1D7
100
AcDbEntity
  8
1
  6
CONTINUOUS
 62
           6
100
AcDbLine
 10
21.684025652878
 20
790.73565097796
 11
21.749479587267
 21
790.145529691935
  0
LINE
  5
1D6
100
AcDbEntity
  8
1
  6
CONTINUOUS
 62
           7
100
AcDbLine
 10
-6.466780038209
 20
799.190094889612
 11
-5.671481577811
 21
800.183825415906
  0
LINE
  5
1D5
100
AcDbEntity
  8
1
  6
CONTINUOUS
 62
           7
100
AcDbLine
 10
-4.017881028681
 20
785.275250526806
 11
-5.011611554975
 21
786.070548987205
  0
LINE
  5
1D4
100
AcDbEntity
  8
1
  6
CONTINUOUS
 62
           7
100
AcDbLine
 10
-6.466780038209
 20
799.190094889612
 11
-5.671481577811
 21
800.183825415906
  0
LINE
  5
1D3
100
AcDbEntity
  8
1
  6
CONTINUOUS
 62
           7
100
AcDbLine
 10
0.905118679593
 20
787.153025768089
 11
0.936221850918
 21
786.872604986166
  0
LINE
  5
1D2
100
AcDbEntity
  8
1
  6
CONTINUOUS
 62
           7
100
AcDbLine
 10
-2.460650436031
 20
790.284870954324
 11
-2.248884828581
 21
788.375629076495
  0
LINE
  5
1D1
100
AcDbEntity
  8
1
  6
CONTINUOUS
 62
           7
100
AcDbLine
 10
-4.336085313055
 20
788.144124999617
 11
-2.248884828581
 21
788.375629076495
  0
LINE
  5
1D0
100
AcDbEntity
  8
1
  6
CONTINUOUS
 62
           7
100
AcDbLine
 10
-4.547850920505
 20
790.053366877446
 11
-2.460650436031
 21
790.284870954324
  0
LINE
  5
1CF
100
AcDbEntity
  8
1
  6
CONTINUOUS
 62
           6
100
AcDbLine
 10
9.775699293856
 20
788.817445028201
 11
9.720579275552
 21
789.314397524505
  0
LINE
  5
1CE
100
AcDbEntity
  8
1
  6
CONTINUOUS
 62
           6
100
AcDbLine
 10
9.294570046259
 20
788.681376489934
 11
9.775699293856
 21
788.817445028201
  0
LINE
  5
1CD
100
AcDbEntity
  8
1
  6
CONTINUOUS
 62
           7
100
AcDbLine
 10
-4.017881028681
 20
785.275250526806
 11
-4.844681303246
 21
792.729537971356
  0
LINE
  5
1CC
100
AcDbEntity
  8
1
  6
CONTINUOUS
 62
           7
100
AcDbLine
 10
9.294570046259
 20
788.681376489934
 11
8.679188169722
 21
794.229552436401
  0
LINE
  5
1CB
100
AcDbEntity
  8
1
  6
CONTINUOUS
 62
           7
100
AcDbLine
 10
9.720579275552
 20
789.314397524505
 11
9.169379092508
 21
794.283922487538
  0
LINE
  5
1CA
100
AcDbEntity
  8
1
  6
CONTINUOUS
 62
           7
100
AcDbLine
 10
-1.930680544207
 20
785.506754603684
 11
9.294570046259
 21
788.681376489934
  0
LINE
  5
1C9
100
AcDbEntity
  8
1
  6
CONTINUOUS
 62
           7
100
AcDbLine
 10
-1.930680544207
 20
785.506754603684
 11
-4.017881028681
 21
785.275250526806
  0
LINE
  5
1C8
100
AcDbEntity
  8
1
  6
CONTINUOUS
 62
           7
100
AcDbLine
 10
9.720579275552
 20
789.314397524505
 11
9.294570046259
 21
788.681376489934
  0
LINE
  5
1C7
100
AcDbEntity
  8
1
  6
CONTINUOUS
 62
           7
100
AcDbLine
 10
8.063806293185
 20
799.777728382868
 11
8.618178909465
 21
799.253447450571
  0
LINE
  5
1C6
100
AcDbEntity
  8
1
  6
CONTINUOUS
 62
           7
100
AcDbLine
 10
-5.671481577811
 20
800.183825415906
 11
-3.584281093337
 21
800.415329492784
  0
LINE
  5
1C5
100
AcDbEntity
  8
1
  6
CONTINUOUS
 62
           7
100
AcDbLine
 10
8.063806293185
 20
799.777728382868
 11
-3.584281093337
 21
800.415329492784
  0
LINE
  5
1C4
100
AcDbEntity
  8
1
  6
CONTINUOUS
 62
           7
100
AcDbLine
 10
9.169379092508
 20
794.283922487538
 11
8.618178909465
 21
799.253447450571
  0
LINE
  5
1C3
100
AcDbEntity
  8
1
  6
CONTINUOUS
 62
           7
100
AcDbLine
 10
8.679188169722
 20
794.229552436401
 11
8.063806293185
 21
799.777728382868
  0
LINE
  5
1C2
100
AcDbEntity
  8
1
  6
CONTINUOUS
 62
           7
100
AcDbLine
 10
-4.844681303246
 20
792.729537971356
 11
-5.671481577811
 21
800.183825415906
  0
LINE
  5
1C1
100
AcDbEntity
  8
1
  6
CONTINUOUS
 62
           6
100
AcDbLine
 10
8.563058891161
 20
799.750399946875
 11
8.063806293185
 21
799.777728382868
  0
LINE
  5
1C0
100
AcDbEntity
  8
1
  6
CONTINUOUS
 62
           6
100
AcDbLine
 10
8.618178909465
 20
799.253447450571
 11
8.563058891161
 21
799.750399946875
  0
LINE
  5
1BF
100
AcDbEntity
  8
1
  6
CONTINUOUS
 62
           7
100
AcDbLine
 10
-3.054311201513
 20
795.637213142144
 11
-5.141511685987
 21
795.405709065266
  0
LINE
  5
1BE
100
AcDbEntity
  8
1
  6
CONTINUOUS
 62
           7
100
AcDbLine
 10
-3.266076808963
 20
797.546455019974
 11
-5.353277293437
 21
797.314950943095
  0
LINE
  5
1BD
100
AcDbEntity
  8
1
  6
CONTINUOUS
 62
           7
100
AcDbLine
 10
-3.266076808963
 20
797.546455019974
 11
-3.054311201513
 21
795.637213142144
  0
LINE
  5
1BC
100
AcDbEntity
  8
1
  6
CONTINUOUS
 62
           7
100
AcDbLine
 10
-0.487753532827
 20
799.710919329954
 11
-0.456650361503
 21
799.430498548031
  0
LINE
  5
1BB
100
AcDbEntity
  8
1
  6
CONTINUOUS
 62
           7
100
AcDbLine
 10
0.905118679593
 20
787.153025768089
 11
0.936221850918
 21
786.872604986166
  0
LINE
  5
1BA
100
AcDbEntity
  8
1
  6
CONTINUOUS
 62
           7
100
AcDbLine
 10
-2.460650436031
 20
790.284870954324
 11
-2.248884828581
 21
788.375629076495
  0
LINE
  5
1B9
100
AcDbEntity
  8
1
  6
CONTINUOUS
 62
           7
100
AcDbLine
 10
-4.336085313055
 20
788.144124999617
 11
-2.248884828581
 21
788.375629076495
  0
LINE
  5
1B8
100
AcDbEntity
  8
1
  6
CONTINUOUS
 62
           7
100
AcDbLine
 10
-4.547850920505
 20
790.053366877446
 11
-2.460650436031
 21
790.284870954324
  0
LINE
  5
1B7
100
AcDbEntity
  8
1
  6
CONTINUOUS
 62
           6
100
AcDbLine
 10
9.775699293856
 20
788.817445028201
 11
9.720579275552
 21
789.314397524505
  0
LINE
  5
1B6
100
AcDbEntity
  8
1
  6
CONTINUOUS
 62
           6
100
AcDbLine
 10
9.294570046259
 20
788.681376489934
 11
9.775699293856
 21
788.817445028201
  0
LINE
  5
1B5
100
AcDbEntity
  8
1
  6
CONTINUOUS
 62
           7
100
AcDbLine
 10
-4.017881028681
 20
785.275250526806
 11
-4.844681303246
 21
792.729537971356
  0
LINE
  5
1B4
100
AcDbEntity
  8
1
  6
CONTINUOUS
 62
           7
100
AcDbLine
 10
9.294570046259
 20
788.681376489934
 11
8.679188169722
 21
794.229552436401
  0
LINE
  5
1B3
100
AcDbEntity
  8
1
  6
CONTINUOUS
 62
           7
100
AcDbLine
 10
9.720579275552
 20
789.314397524505
 11
9.169379092508
 21
794.283922487538
  0
LINE
  5
1B2
100
AcDbEntity
  8
1
  6
CONTINUOUS
 62
           7
100
AcDbLine
 10
-1.930680544207
 20
785.506754603684
 11
9.294570046259
 21
788.681376489934
  0
LINE
  5
1B1
100
AcDbEntity
  8
1
  6
CONTINUOUS
 62
           7
100
AcDbLine
 10
-1.930680544207
 20
785.506754603684
 11
-4.017881028681
 21
785.275250526806
  0
LINE
  5
1B0
100
AcDbEntity
  8
1
  6
CONTINUOUS
 62
           7
100
AcDbLine
 10
-4.017881028681
 20
785.275250526806
 11
-5.011611554975
 21
786.070548987205
  0
LINE
  5
1AF
100
AcDbEntity
  8
1
  6
CONTINUOUS
 62
           7
100
AcDbLine
 10
9.720579275552
 20
789.314397524505
 11
9.294570046259
 21
788.681376489934
  0
LINE
  5
1AE
100
AcDbEntity
  8
1
  6
CONTINUOUS
 62
           7
100
AcDbLine
 10
8.063806293185
 20
799.777728382868
 11
8.618178909465
 21
799.253447450571
  0
LINE
  5
1AD
100
AcDbEntity
  8
1
  6
CONTINUOUS
 62
           7
100
AcDbLine
 10
-5.671481577811
 20
800.183825415906
 11
-3.584281093337
 21
800.415329492784
  0
LINE
  5
1AC
100
AcDbEntity
  8
1
  6
CONTINUOUS
 62
           7
100
AcDbLine
 10
8.063806293185
 20
799.777728382868
 11
-3.584281093337
 21
800.415329492784
  0
LINE
  5
1AB
100
AcDbEntity
  8
1
  6
CONTINUOUS
 62
           7
100
AcDbLine
 10
9.169379092508
 20
794.283922487538
 11
8.618178909465
 21
799.253447450571
  0
LINE
  5
1AA
100
AcDbEntity
  8
1
  6
CONTINUOUS
 62
           7
100
AcDbLine
 10
8.679188169722
 20
794.229552436401
 11
8.063806293185
 21
799.777728382868
  0
LINE
  5
1A9
100
AcDbEntity
  8
1
  6
CONTINUOUS
 62
           7
100
AcDbLine
 10
-4.844681303246
 20
792.729537971356
 11
-5.671481577811
 21
800.183825415906
  0
LINE
  5
1A8
100
AcDbEntity
  8
1
  6
CONTINUOUS
 62
           6
100
AcDbLine
 10
8.563058891161
 20
799.750399946875
 11
8.063806293185
 21
799.777728382868
  0
LINE
  5
1A7
100
AcDbEntity
  8
1
  6
CONTINUOUS
 62
           6
100
AcDbLine
 10
8.618178909465
 20
799.253447450571
 11
8.563058891161
 21
799.750399946875
  0
LINE
  5
1A6
100
AcDbEntity
  8
1
  6
CONTINUOUS
 62
           7
100
AcDbLine
 10
-3.054311201513
 20
795.637213142144
 11
-5.141511685987
 21
795.405709065266
  0
LINE
  5
1A5
100
AcDbEntity
  8
1
  6
CONTINUOUS
 62
           7
100
AcDbLine
 10
-3.266076808963
 20
797.546455019974
 11
-5.353277293437
 21
797.314950943095
  0
LINE
  5
1A4
100
AcDbEntity
  8
1
  6
CONTINUOUS
 62
           7
100
AcDbLine
 10
-3.266076808963
 20
797.546455019974
 11
-3.054311201513
 21
795.637213142144
  0
LINE
  5
1A3
100
AcDbEntity
  8
1
  6
CONTINUOUS
 62
           7
100
AcDbLine
 10
-0.487753532827
 20
799.710919329954
 11
-0.456650361503
 21
799.430498548031
  0
LINE
  5
1A2
100
AcDbEntity
  8
1
  6
CONTINUOUS
 62
           2
100
AcDbLine
 10
11.204109459852
 20
794.509606785186
 11
16.919063167341
 21
795.143486995685
  0
LINE
  5
1A1
100
AcDbEntity
  8
1
  6
CONTINUOUS
 62
           7
100
AcDbLine
 10
9.599315235282
 20
790.407693016372
 11
11.137093106323
 21
790.578257295715
  0
LINE
  5
1A0
100
AcDbEntity
  8
1
  6
CONTINUOUS
 62
           2
100
AcDbLine
 10
10.708029295113
 20
798.982179251915
 11
16.422983002602
 21
799.616059462415
  0
LINE
  5
19F
100
AcDbEntity
  8
1
  6
CONTINUOUS
 62
           7
100
AcDbLine
 10
21.088039367615
 20
796.108959647575
 11
21.143159385919
 21
795.612007151272
  0
LINE
  5
19E
100
AcDbEntity
  8
1
  6
CONTINUOUS
 62
           7
100
AcDbLine
 10
17.223531765362
 20
799.201786993568
 11
16.39542299345
 21
799.864535710566
  0
LINE
  5
19D
100
AcDbEntity
  8
1
  6
CONTINUOUS
 62
           7
100
AcDbLine
 10
16.39542299345
 20
799.864535710566
 11
10.680469285961
 21
799.230655500068
  0
LINE
  5
19C
100
AcDbEntity
  8
1
  6
CONTINUOUS
 62
           7
100
AcDbLine
 10
10.277220820775
 20
798.330716238046
 11
8.739442949735
 21
798.160151958703
  0
LINE
  5
19B
100
AcDbEntity
  8
1
  6
CONTINUOUS
 62
           7
100
AcDbLine
 10
10.680469285961
 20
799.230655500068
 11
11.204109459852
 21
794.509606785186
  0
LINE
  5
19A
100
AcDbEntity
  8
1
  6
CONTINUOUS
 62
           7
100
AcDbLine
 10
17.664491911796
 20
795.226167023142
 11
17.223531765362
 21
799.201786993568
  0
LINE
  5
199
100
AcDbEntity
  8
1
  6
CONTINUOUS
 62
           7
100
AcDbLine
 10
16.919063167341
 20
795.143486995685
 11
16.39542299345
 21
799.864535710566
  0
LINE
  5
198
100
AcDbEntity
  8
1
  6
CONTINUOUS
 62
           2
100
AcDbLine
 10
16.863943149036
 20
795.640439491988
 11
11.148989441548
 21
795.006559281488
  0
LINE
  5
197
100
AcDbEntity
  8
1
  6
CONTINUOUS
 62
           2
100
AcDbLine
 10
11.093869423244
 20
795.503511777791
 11
16.808823130732
 21
796.137391988291
  0
LINE
  5
196
100
AcDbEntity
  8
1
  6
CONTINUOUS
 62
           2
100
AcDbLine
 10
16.753703112428
 20
796.634344484595
 11
11.038749404939
 21
796.000464274095
  0
LINE
  5
195
100
AcDbEntity
  8
1
  6
CONTINUOUS
 62
           2
100
AcDbLine
 10
10.983629386635
 20
796.497416770398
 11
16.698583094123
 21
797.131296980898
  0
LINE
  5
194
100
AcDbEntity
  8
1
  6
CONTINUOUS
 62
           2
100
AcDbLine
 10
16.643463075819
 20
797.628249477201
 11
10.928509368331
 21
796.994369266702
  0
LINE
  5
193
100
AcDbEntity
  8
1
  6
CONTINUOUS
 62
           2
100
AcDbLine
 10
10.873389350026
 20
797.491321763005
 11
16.588343057515
 21
798.125201973505
  0
LINE
  5
192
100
AcDbEntity
  8
1
  6
CONTINUOUS
 62
           2
100
AcDbLine
 10
16.533223039211
 20
798.622154469808
 11
10.818269331722
 21
797.988274259308
  0
LINE
  5
191
100
AcDbEntity
  8
1
  6
CONTINUOUS
 62
           2
100
AcDbLine
 10
10.763149313418
 20
798.485226755612
 11
16.478103020906
 21
799.119106966111
  0
LINE
  5
190
100
AcDbEntity
  8
1
  6
CONTINUOUS
 62
           2
100
AcDbLine
 10
17.360023313775
 20
791.167867025259
 11
11.645069606287
 21
790.533986814759
  0
LINE
  5
18F
100
AcDbEntity
  8
1
  6
CONTINUOUS
 62
           2
100
AcDbLine
 10
11.589949587982
 20
791.030939311062
 11
17.304903295471
 21
791.664819521562
  0
LINE
  5
18E
100
AcDbEntity
  8
1
  6
CONTINUOUS
 62
           2
100
AcDbLine
 10
17.249783277167
 20
792.161772017865
 11
11.534829569678
 21
791.527891807366
  0
LINE
  5
18D
100
AcDbEntity
  8
1
  6
CONTINUOUS
 62
           2
100
AcDbLine
 10
11.479709551374
 20
792.024844303669
 11
17.194663258862
 21
792.658724514169
  0
LINE
  5
18C
100
AcDbEntity
  8
1
  6
CONTINUOUS
 62
           2
100
AcDbLine
 10
17.139543240558
 20
793.155677010472
 11
11.42458953307
 21
792.521796799972
  0
LINE
  5
18B
100
AcDbEntity
  8
1
  6
CONTINUOUS
 62
           2
100
AcDbLine
 10
11.369469514765
 20
793.018749296276
 11
17.084423222254
 21
793.652629506775
  0
LINE
  5
18A
100
AcDbEntity
  8
1
  6
CONTINUOUS
 62
           2
100
AcDbLine
 10
17.029303203949
 20
794.149582003079
 11
11.314349496461
 21
793.515701792579
  0
LINE
  5
189
100
AcDbEntity
  8
1
  6
CONTINUOUS
 62
           2
100
AcDbLine
 10
11.259229478157
 20
794.012654288882
 11
16.974183185645
 21
794.646534499382
  0
LINE
  5
188
100
AcDbEntity
  8
1
  6
CONTINUOUS
 62
           7
100
AcDbLine
 10
17.442703341232
 20
790.422438280804
 11
16.919063167341
 21
795.143486995685
  0
LINE
  5
187
100
AcDbEntity
  8
1
  6
CONTINUOUS
 62
           7
100
AcDbLine
 10
18.105452058231
 20
791.250547052715
 11
17.664491911796
 21
795.226167023142
  0
LINE
  5
186
100
AcDbEntity
  8
1
  6
CONTINUOUS
 62
           7
100
AcDbLine
 10
11.204109459852
 20
794.509606785186
 11
11.727749633743
 21
789.788558070304
  0
LINE
  5
185
100
AcDbEntity
  8
1
  6
CONTINUOUS
 62
           7
100
AcDbLine
 10
11.727749633743
 20
789.788558070304
 11
17.442703341232
 21
790.422438280804
  0
LINE
  5
184
100
AcDbEntity
  8
1
  6
CONTINUOUS
 62
           7
100
AcDbLine
 10
17.442703341232
 20
790.422438280804
 11
18.105452058231
 21
791.250547052715
  0
LINE
  5
183
100
AcDbEntity
  8
1
  6
CONTINUOUS
 62
           7
100
AcDbLine
 10
21.143159385919
 20
795.612007151272
 11
21.198279404224
 21
795.115054654969
  0
LINE
  5
182
100
AcDbEntity
  8
1
  6
CONTINUOUS
 62
           2
100
AcDbLine
 10
17.41514333208
 20
790.670914528955
 11
11.700189624591
 21
790.037034318456
  0
LINE
  5
181
100
AcDbEntity
  8
1
  6
CONTINUOUS
 62
           7
100
AcDbLine
 10
-4.224727677482
 20
759.871519846537
 11
11.794989529474
 21
705.191653556931
  0
LINE
  5
180
100
AcDbEntity
  8
1
  6
CONTINUOUS
 62
           7
100
AcDbLine
 10
-22.326687651258
 20
706.54210843462
 11
-32.839860895619
 21
778.351486718668
  0
LINE
  5
17F
100
AcDbEntity
  8
1
  6
CONTINUOUS
 62
           7
100
AcDbLine
 10
-161.181502402177
 20
785.036749872809
 11
-162.278822985439
 21
798.472099081488
  0
LINE
  5
17E
100
AcDbEntity
  8
1
  6
CONTINUOUS
 62
           7
100
AcDbLine
 10
-159.518667167456
 20
786.021446422866
 11
-159.458128282524
 21
786.647878154625
  0
LINE
  5
17D
100
AcDbEntity
  8
1
  6
CONTINUOUS
 62
           7
100
AcDbLine
 10
-168.845978025548
 20
780.575952825506
 11
-164.59161189102
 21
781.047830401235
  0
LINE
  5
17C
100
AcDbEntity
  8
1
  6
CONTINUOUS
 62
           7
100
AcDbLine
 10
-159.458128282524
 20
786.647878154625
 11
-152.500793334277
 21
787.419558410886
  0
LINE
  5
17B
100
AcDbEntity
  8
1
  6
CONTINUOUS
 62
           7
100
AcDbLine
 10
-152.500793334277
 20
787.419558410886
 11
-152.304451993433
 21
786.821618824456
  0
LINE
  5
17A
100
AcDbEntity
  8
1
  6
CONTINUOUS
 62
           7
100
AcDbLine
 10
-162.278822985439
 20
798.472099081488
 11
-162.487008530323
 21
809.420178287354
  0
LINE
  5
179
100
AcDbEntity
  8
1
  6
CONTINUOUS
 62
           7
100
AcDbLine
 10
-154.535768589469
 20
810.302098580223
 11
-152.339773059372
 21
799.574499447574
  0
LINE
  5
178
100
AcDbEntity
  8
1
  6
CONTINUOUS
 62
           7
100
AcDbLine
 10
-152.339773059372
 20
799.574499447574
 11
-150.466250480218
 21
786.22524351449
  0
LINE
  5
177
100
AcDbEntity
  8
1
  6
CONTINUOUS
 62
           7
100
AcDbLine
 10
-162.192246571732
 20
797.412076724195
 11
-162.907054918584
 21
797.33279299093
  0
LINE
  5
176
100
AcDbEntity
  8
1
  6
CONTINUOUS
 62
           7
100
AcDbLine
 10
-162.907054918584
 20
797.33279299093
 11
-161.515550019755
 21
784.787226890539
  0
LINE
  5
175
100
AcDbEntity
  8
1
  6
CONTINUOUS
 62
           7
100
AcDbLine
 10
-151.477147503607
 20
798.600553411929
 11
-152.191955850459
 21
798.521269678664
  0
LINE
  5
174
100
AcDbEntity
  8
1
  6
CONTINUOUS
 62
           7
100
AcDbLine
 10
-159.458128282524
 20
786.647878154625
 11
-161.845990714272
 21
793.172597002878
  0
LINE
  5
173
100
AcDbEntity
  8
1
  6
CONTINUOUS
 62
           7
100
AcDbLine
 10
-152.500793334277
 20
787.419558410886
 11
-151.600772036895
 21
794.308956403886
  0
LINE
  5
172
100
AcDbEntity
  8
1
  6
CONTINUOUS
 62
           7
100
AcDbLine
 10
-158.734075049275
 20
799.80790829054
 11
-156.091087519351
 21
800.101058082746
  0
LINE
  5
171
100
AcDbEntity
  8
1
  6
CONTINUOUS
 62
           7
100
AcDbLine
 10
-161.845990714272
 20
793.172597002878
 11
-162.014364086834
 21
805.983932017227
  0
LINE
  5
170
100
AcDbEntity
  8
1
  6
CONTINUOUS
 62
           7
100
AcDbLine
 10
-151.600772036895
 20
794.308956403886
 11
-154.243918957704
 21
806.845799259944
  0
LINE
  5
16F
100
AcDbEntity
  8
1
  6
CONTINUOUS
 62
           7
100
AcDbLine
 10
-162.014364086834
 20
805.983932017227
 11
-160.871281932464
 21
801.224615538995
  0
LINE
  5
16E
100
AcDbEntity
  8
1
  6
CONTINUOUS
 62
           7
100
AcDbLine
 10
-154.243918957704
 20
806.845799259944
 11
-154.316278919946
 21
801.951670717754
  0
LINE
  5
16D
100
AcDbEntity
  8
1
  6
CONTINUOUS
 62
           7
100
AcDbLine
 10
-154.535768589469
 20
810.302098580223
 11
-154.616401726611
 21
810.398624542263
  0
LINE
  5
16C
100
AcDbEntity
  8
1
  6
CONTINUOUS
 62
           7
100
AcDbLine
 10
-162.487008530323
 20
809.420178287354
 11
-162.429487577469
 21
809.532027758233
  0
LINE
  5
16B
100
AcDbEntity
  8
1
  6
CONTINUOUS
 62
           7
100
AcDbLine
 10
-157.60854604266
 20
783.579038259021
 11
-157.522857921779
 21
782.806489067538
  0
LINE
  5
16A
100
AcDbEntity
  8
1
  6
CONTINUOUS
 62
           7
100
AcDbLine
 10
-153.632926072233
 20
784.019998405456
 11
-153.547237951352
 21
783.247449213973
  0
LINE
  5
169
100
AcDbEntity
  8
1
  6
CONTINUOUS
 62
           7
100
AcDbLine
 10
-150.085642604778
 20
786.054987311538
 11
-151.477147503607
 21
798.600553411929
  0
LINE
  5
168
100
AcDbEntity
  8
1
  6
CONTINUOUS
 62
           7
100
AcDbLine
 10
-162.295309948563
 20
791.363851033459
 11
-162.245614698932
 21
791.36936303529
  0
LINE
  5
167
100
AcDbEntity
  8
1
  6
CONTINUOUS
 62
           7
100
AcDbLine
 10
-162.736270094997
 20
795.339471003886
 11
-162.686574845367
 21
795.344983005716
  0
LINE
  5
166
100
AcDbEntity
  8
1
  6
CONTINUOUS
 62
           7
100
AcDbLine
 10
-163.62872645268
 20
791.593253358095
 11
-163.529335953419
 21
791.604277361756
  0
LINE
  5
165
100
AcDbEntity
  8
1
  6
CONTINUOUS
 62
           7
100
AcDbLine
 10
-163.987006571658
 20
794.823444584067
 11
-163.887616072397
 21
794.834468587728
  0
LINE
  5
164
100
AcDbEntity
  8
1
  6
CONTINUOUS
 62
           7
100
AcDbLine
 10
-163.422026384039
 20
789.729681496958
 11
-164.018369379602
 21
789.663537474993
  0
LINE
  5
163
100
AcDbEntity
  8
1
  6
CONTINUOUS
 62
           7
100
AcDbLine
 10
-164.193706640299
 20
796.687016445205
 11
-163.422026384039
 21
789.729681496958
  0
LINE
  5
162
100
AcDbEntity
  8
1
  6
CONTINUOUS
 62
           7
100
AcDbLine
 10
-164.018369379602
 20
789.663537474993
 11
-164.790049635863
 21
796.620872423239
  0
LINE
  5
161
100
AcDbEntity
  8
1
  6
CONTINUOUS
 62
           7
100
AcDbLine
 10
-164.790049635863
 20
796.620872423239
 11
-164.193706640299
 21
796.687016445205
  0
LINE
  5
160
100
AcDbEntity
  8
1
  6
CONTINUOUS
 62
           7
100
AcDbLine
 10
-165.121642077253
 20
795.074894916025
 11
-164.680681930819
 21
791.099274945598
  0
LINE
  5
15F
100
AcDbEntity
  8
1
  6
CONTINUOUS
 62
           7
100
AcDbLine
 10
-165.386741564053
 20
794.74365140726
 11
-165.121642077253
 21
795.074894916025
  0
LINE
  5
15E
100
AcDbEntity
  8
1
  6
CONTINUOUS
 62
           7
100
AcDbLine
 10
-164.680681930819
 20
791.099274945598
 11
-165.011925439584
 21
791.364374432398
  0
LINE
  5
15D
100
AcDbEntity
  8
1
  6
CONTINUOUS
 62
           7
100
AcDbLine
 10
-164.680681930819
 20
791.099274945598
 11
-164.183729434515
 21
791.154394963903
  0
LINE
  5
15C
100
AcDbEntity
  8
1
  6
CONTINUOUS
 62
           7
100
AcDbLine
 10
-165.386741564053
 20
794.74365140726
 11
-165.011925439584
 21
791.364374432398
  0
LINE
  5
15B
100
AcDbEntity
  8
1
  6
CONTINUOUS
 62
           7
100
AcDbLine
 10
-164.62468958095
 20
795.130014934329
 11
-165.121642077253
 21
795.074894916025
  0
LINE
  5
15A
100
AcDbEntity
  8
1
  6
CONTINUOUS
 62
           7
100
AcDbLine
 10
-164.62468958095
 20
795.130014934329
 11
-164.183729434515
 21
791.154394963903
  0
LINE
  5
159
100
AcDbEntity
  8
1
  6
CONTINUOUS
 62
           7
100
AcDbLine
 10
-163.928956086125
 20
795.207182959956
 11
-163.487995939691
 21
791.231562989529
  0
LINE
  5
158
100
AcDbEntity
  8
1
  6
CONTINUOUS
 62
           7
100
AcDbLine
 10
-150.766012034325
 20
792.642635458119
 11
-150.815707283955
 21
792.637123456289
  0
LINE
  5
157
100
AcDbEntity
  8
1
  6
CONTINUOUS
 62
           7
100
AcDbLine
 10
-149.308575489023
 20
791.295090016801
 11
-150.080255745284
 21
798.252424965047
  0
LINE
  5
156
100
AcDbEntity
  8
1
  6
CONTINUOUS
 62
           7
100
AcDbLine
 10
-148.712232493459
 20
791.361234038766
 11
-149.308575489023
 21
791.295090016801
  0
LINE
  5
155
100
AcDbEntity
  8
1
  6
CONTINUOUS
 62
           7
100
AcDbLine
 10
-149.48391274972
 20
798.318568987013
 11
-148.712232493459
 21
791.361234038766
  0
LINE
  5
154
100
AcDbEntity
  8
1
  6
CONTINUOUS
 62
           7
100
AcDbLine
 10
-150.080255745284
 20
798.252424965047
 11
-149.48391274972
 21
798.318568987013
  0
LINE
  5
153
100
AcDbEntity
  8
1
  6
CONTINUOUS
 62
           7
100
AcDbLine
 10
-148.821600198504
 20
796.882831516407
 11
-148.380640052069
 21
792.90721154598
  0
LINE
  5
152
100
AcDbEntity
  8
1
  6
CONTINUOUS
 62
           7
100
AcDbLine
 10
-148.380640052069
 20
792.90721154598
 11
-148.11554056527
 21
793.238455054745
  0
LINE
  5
151
100
AcDbEntity
  8
1
  6
CONTINUOUS
 62
           7
100
AcDbLine
 10
-148.490356689739
 20
796.617732029608
 11
-148.821600198504
 21
796.882831516407
  0
LINE
  5
150
100
AcDbEntity
  8
1
  6
CONTINUOUS
 62
           7
100
AcDbLine
 10
-148.380640052069
 20
792.90721154598
 11
-148.877592548372
 21
792.852091527676
  0
LINE
  5
14F
100
AcDbEntity
  8
1
  6
CONTINUOUS
 62
           7
100
AcDbLine
 10
-148.490356689739
 20
796.617732029608
 11
-148.11554056527
 21
793.238455054745
  0
LINE
  5
14E
100
AcDbEntity
  8
1
  6
CONTINUOUS
 62
           7
100
AcDbLine
 10
-149.318552694807
 20
796.827711498103
 11
-148.821600198504
 21
796.882831516407
  0
LINE
  5
14D
100
AcDbEntity
  8
1
  6
CONTINUOUS
 62
           7
100
AcDbLine
 10
-149.318552694807
 20
796.827711498103
 11
-148.877592548372
 21
792.852091527676
  0
LINE
  5
14C
100
AcDbEntity
  8
1
  6
CONTINUOUS
 62
           7
100
AcDbLine
 10
-149.614666056925
 20
793.147637874277
 11
-149.515275557665
 21
793.158661877938
  0
LINE
  5
14B
100
AcDbEntity
  8
1
  6
CONTINUOUS
 62
           7
100
AcDbLine
 10
-149.972946175903
 20
796.377829100249
 11
-149.873555676643
 21
796.38885310391
  0
LINE
  5
14A
100
AcDbEntity
  8
1
  6
CONTINUOUS
 62
           7
100
AcDbLine
 10
-150.014286189632
 20
796.750543472477
 11
-149.573326043197
 21
792.77492350205
  0
LINE
  5
149
100
AcDbEntity
  8
1
  6
CONTINUOUS
 62
           7
100
AcDbLine
 10
-151.25666743039
 20
796.612743426716
 11
-151.206972180759
 21
796.618255428546
  0
LINE
  5
148
100
AcDbEntity
  8
1
  6
DOT_CENTER
 62
           2
100
AcDbLine
 10
-165.942350739533
 20
792.971600367225
 11
-147.287780168545
 21
795.040692038926
  0
LINE
  5
147
100
AcDbEntity
  8
1
  6
CONTINUOUS
 62
           7
100
AcDbLine
 10
-163.268731451716
 20
769.120970489955
 11
-167.523097586244
 21
768.649092914225
  0
LINE
  5
146
100
AcDbEntity
  8
1
  6
CONTINUOUS
 62
           6
100
AcDbLine
 10
-147.746460323591
 20
767.632319332417
 11
-147.41140268962
 21
765.157541499462
  0
LINE
  5
145
100
AcDbEntity
  8
1
  6
CONTINUOUS
 62
           7
100
AcDbLine
 10
-167.523097586244
 20
768.649092914225
 11
-168.845978025548
 21
780.575952825506
  0
LINE
  5
144
100
AcDbEntity
  8
1
  6
CONTINUOUS
 62
           7
100
AcDbLine
 10
-153.547237951352
 20
783.247449213973
 11
-154.173091982747
 21
781.819740625298
  0
LINE
  5
143
100
AcDbEntity
  8
1
  6
CONTINUOUS
 62
           7
100
AcDbLine
 10
-156.599353030482
 20
781.550629282952
 11
-157.522857921779
 21
782.806489067538
  0
LINE
  5
142
100
AcDbEntity
  8
1
  6
CONTINUOUS
 62
           7
100
AcDbLine
 10
-154.173091982747
 20
781.819740625298
 11
-154.008223992352
 21
780.333319504484
  0
LINE
  5
141
100
AcDbEntity
  8
1
  6
CONTINUOUS
 62
           7
100
AcDbLine
 10
-156.599353030482
 20
781.550629282952
 11
-156.434485040087
 21
780.064208162138
  0
LINE
  5
140
100
AcDbEntity
  8
1
  6
CONTINUOUS
 62
           7
100
AcDbLine
 10
-157.522857921779
 20
782.806489067538
 11
-157.17426716669
 21
779.663655460824
  0
LINE
  5
13F
100
AcDbEntity
  8
1
  6
CONTINUOUS
 62
           7
100
AcDbLine
 10
-153.547237951352
 20
783.247449213973
 11
-153.198647196263
 21
780.104615607259
  0
LINE
  5
13E
100
AcDbEntity
  8
1
  6
DOT_CENTER
 62
           2
100
AcDbLine
 10
-155.870590620692
 20
780.950064126911
 11
-154.730174655683
 21
781.07655458492
  0
LINE
  5
13D
100
AcDbEntity
  8
1
  6
CONTINUOUS
 62
           7
100
AcDbLine
 10
-155.986402860059
 20
768.954077514191
 11
-155.900714739178
 21
768.181528322708
  0
LINE
  5
13C
100
AcDbEntity
  8
1
  6
CONTINUOUS
 62
           7
100
AcDbLine
 10
-152.010782889632
 20
769.395037660626
 11
-151.925094768751
 21
768.622488469143
  0
LINE
  5
13B
100
AcDbEntity
  8
1
  6
CONTINUOUS
 62
           7
100
AcDbLine
 10
-152.934287780929
 20
770.650897445212
 11
-152.010782889632
 21
769.395037660626
  0
LINE
  5
13A
100
AcDbEntity
  8
1
  6
CONTINUOUS
 62
           7
100
AcDbLine
 10
-155.986402860059
 20
768.954077514191
 11
-155.360548828664
 21
770.381786102866
  0
LINE
  5
139
100
AcDbEntity
  8
1
  6
CONTINUOUS
 62
           7
100
AcDbLine
 10
-153.099155771324
 20
772.137318566026
 11
-152.934287780929
 21
770.650897445212
  0
LINE
  5
138
100
AcDbEntity
  8
1
  6
CONTINUOUS
 62
           7
100
AcDbLine
 10
-155.525416819059
 20
771.868207223681
 11
-155.360548828664
 21
770.381786102866
  0
LINE
  5
137
100
AcDbEntity
  8
1
  6
CONTINUOUS
 62
           7
100
AcDbLine
 10
-156.334993615148
 20
772.096911120906
 11
-155.986402860059
 21
768.954077514191
  0
LINE
  5
136
100
AcDbEntity
  8
1
  6
CONTINUOUS
 62
           7
100
AcDbLine
 10
-152.359373644721
 20
772.53787126734
 11
-152.010782889632
 21
769.395037660626
  0
LINE
  5
135
100
AcDbEntity
  8
1
  6
DOT_CENTER
 62
           2
100
AcDbLine
 10
-153.640689150708
 20
771.253942799952
 11
-154.781105115717
 21
771.127452341943
  0
LINE
  5
134
100
AcDbEntity
  8
1
  6
CONTINUOUS
 62
           6
100
AcDbLine
 10
-159.545402761334
 20
763.811685887442
 11
-159.76080247106
 21
766.299735707203
  0
LINE
  5
133
100
AcDbEntity
  8
1
  6
CONTINUOUS
 62
           7
100
AcDbLine
 10
-149.073800139699
 20
676.69657589726
 11
-149.240340134456
 21
678.198071518546
  0
LINE
  5
132
100
AcDbEntity
  8
1
  6
CONTINUOUS
 62
           7
100
AcDbLine
 10
-138.704947212825
 20
679.366615906598
 11
-138.536367452287
 21
677.846730111869
  0
LINE
  5
131
100
AcDbEntity
  8
1
  6
CONTINUOUS
 62
           7
100
AcDbLine
 10
-138.833391620791
 20
677.510467893721
 11
-138.536367452287
 21
677.846730111869
  0
LINE
  5
130
100
AcDbEntity
  8
1
  6
CONTINUOUS
 62
           7
100
AcDbLine
 10
-137.998918231363
 20
684.715102150137
 11
-138.011000466715
 21
684.707532714592
  0
LINE
  5
12F
100
AcDbEntity
  8
1
  6
CONTINUOUS
 62
           7
100
AcDbLine
 10
-151.100431956543
 20
683.251100134642
 11
-151.08676933796
 21
683.24773605951
  0
LINE
  5
12E
100
AcDbEntity
  8
1
  6
CONTINUOUS
 62
           6
100
AcDbLine
 10
-148.619154839551
 20
766.979019666372
 11
-146.545205539909
 21
751.783374616079
  0
LINE
  5
12D
100
AcDbEntity
  8
1
  6
CONTINUOUS
 62
           7
100
AcDbLine
 10
-152.772534813574
 20
685.579301553708
 11
-159.545402761334
 21
763.811685887442
  0
LINE
  5
12C
100
AcDbEntity
  8
1
  6
CONTINUOUS
 62
           7
100
AcDbLine
 10
-147.41140268962
 20
765.157541499462
 11
-136.876100146009
 21
687.342471628046
  0
LINE
  5
12B
100
AcDbEntity
  8
1
  6
CONTINUOUS
 62
           6
100
AcDbLine
 10
-157.459781637772
 20
750.572772719982
 11
-158.76615779752
 21
765.853553967059
  0
LINE
  5
12A
100
AcDbEntity
  8
1
  6
CONTINUOUS
 62
           7
100
AcDbLine
 10
-137.61282368038
 20
692.78400432876
 11
-153.246154929527
 21
691.050016651829
  0
LINE
  5
129
100
AcDbEntity
  8
1
  6
CONTINUOUS
 62
           7
100
AcDbLine
 10
-152.486214752461
 20
691.134306230373
 11
-152.453142741478
 21
690.836134732591
  0
LINE
  5
128
100
AcDbEntity
  8
1
  6
CONTINUOUS
 62
           7
100
AcDbLine
 10
-138.372763857446
 20
692.699714750216
 11
-138.339691846463
 21
692.401543252434
  0
LINE
  5
127
100
AcDbEntity
  8
1
  6
CONTINUOUS
 62
           7
100
AcDbLine
 10
-152.453142741478
 20
690.836134732591
 11
-138.339691846463
 21
692.401543252434
  0
LINE
  5
126
100
AcDbEntity
  8
1
  6
CONTINUOUS
 62
           7
100
AcDbLine
 10
-152.379314565859
 20
691.146163179047
 11
-157.459781637772
 21
750.572772719982
  0
LINE
  5
125
100
AcDbEntity
  8
1
  6
CONTINUOUS
 62
           7
100
AcDbLine
 10
-146.545205539909
 20
751.783374616079
 11
-138.479664044048
 21
692.687857801542
  0
LINE
  5
124
100
AcDbEntity
  8
1
  6
CONTINUOUS
 62
           7
100
AcDbLine
 10
-136.869676501266
 20
687.244164247502
 11
-137.492821814998
 21
685.094007817789
  0
LINE
  5
123
100
AcDbEntity
  8
1
  6
CONTINUOUS
 62
           7
100
AcDbLine
 10
-136.876100146009
 20
687.342471628046
 11
-136.869676501266
 21
687.244164247502
  0
LINE
  5
122
100
AcDbEntity
  8
1
  6
CONTINUOUS
 62
           7
100
AcDbLine
 10
-151.723373597401
 20
683.574192523176
 11
-152.707780187615
 21
685.417046231573
  0
LINE
  5
121
100
AcDbEntity
  8
1
  6
CONTINUOUS
 62
           7
100
AcDbLine
 10
-151.856799745914
 20
690.902278754556
 11
-152.386998719513
 21
690.239791737027
  0
LINE
  5
120
100
AcDbEntity
  8
1
  6
CONTINUOUS
 62
           7
100
AcDbLine
 10
-142.491112724217
 20
691.337404529509
 11
-141.154998224354
 21
691.48560110008
  0
LINE
  5
11F
100
AcDbEntity
  8
1
  6
CONTINUOUS
 62
           7
100
AcDbLine
 10
-142.110388853991
 20
687.904864346622
 11
-140.774274354128
 21
688.053060917193
  0
LINE
  5
11E
100
AcDbEntity
  8
1
  6
CONTINUOUS
 62
           7
100
AcDbLine
 10
-138.273547824498
 20
691.80520025687
 11
-138.936034842027
 21
692.335399230469
  0
LINE
  5
11D
100
AcDbEntity
  8
1
  6
CONTINUOUS
 62
           7
100
AcDbLine
 10
-144.911361132893
 20
687.245657025043
 11
-138.848540677992
 21
687.918121248356
  0
LINE
  5
11C
100
AcDbEntity
  8
1
  6
CONTINUOUS
 62
           7
100
AcDbLine
 10
-142.110388853991
 20
687.904864346622
 11
-142.491112724217
 21
691.337404529509
  0
LINE
  5
11B
100
AcDbEntity
  8
1
  6
CONTINUOUS
 62
           7
100
AcDbLine
 10
-140.774274354128
 20
688.053060917193
 11
-141.154998224354
 21
691.48560110008
  0
LINE
  5
11A
100
AcDbEntity
  8
1
  6
CONTINUOUS
 62
           7
100
AcDbLine
 10
-137.964875721994
 20
689.022266277571
 11
-138.273547824498
 21
691.80520025687
  0
LINE
  5
119
100
AcDbEntity
  8
1
  6
CONTINUOUS
 62
           7
100
AcDbLine
 10
-149.505548319657
 20
690.559390893817
 11
-148.169433819794
 21
690.707587464388
  0
LINE
  5
118
100
AcDbEntity
  8
1
  6
CONTINUOUS
 62
           7
100
AcDbLine
 10
-149.124824449431
 20
687.12685071093
 11
-147.788709949568
 21
687.275047281501
  0
LINE
  5
117
100
AcDbEntity
  8
1
  6
CONTINUOUS
 62
           7
100
AcDbLine
 10
-150.974181587793
 20
686.57319280173
 11
-144.911361132893
 21
687.245657025043
  0
LINE
  5
116
100
AcDbEntity
  8
1
  6
CONTINUOUS
 62
           7
100
AcDbLine
 10
-148.169433819794
 20
690.707587464388
 11
-147.788709949568
 21
687.275047281501
  0
LINE
  5
115
100
AcDbEntity
  8
1
  6
CONTINUOUS
 62
           7
100
AcDbLine
 10
-149.505548319657
 20
690.559390893817
 11
-149.124824449431
 21
687.12685071093
  0
LINE
  5
114
100
AcDbEntity
  8
1
  6
CONTINUOUS
 62
           7
100
AcDbLine
 10
-152.386998719513
 20
690.239791737027
 11
-152.078326617009
 21
687.456857757728
  0
LINE
  5
113
100
AcDbEntity
  8
1
  6
CONTINUOUS
 62
           7
100
AcDbLine
 10
-147.743990361822
 20
686.931472920708
 11
-147.468984586318
 21
684.452068689019
  0
LINE
  5
112
100
AcDbEntity
  8
1
  6
CONTINUOUS
 62
           7
100
AcDbLine
 10
-143.974915137737
 20
678.802822837714
 11
-149.441392597074
 21
678.196502636366
  0
LINE
  5
111
100
AcDbEntity
  8
1
  6
CONTINUOUS
 62
           3
100
AcDbLine
 10
-150.321724832677
 20
679.104992028045
 11
-150.817804997416
 21
683.577564494775
  0
LINE
  5
110
100
AcDbEntity
  8
1
  6
CONTINUOUS
 62
           3
100
AcDbLine
 10
-150.587454847284
 20
683.603114028354
 11
-150.091374682545
 21
679.130541561624
  0
LINE
  5
10F
100
AcDbEntity
  8
1
  6
CONTINUOUS
 62
           3
100
AcDbLine
 10
-150.005604691928
 20
683.667650561427
 11
-149.509524527189
 21
679.195078094697
  0
LINE
  5
10E
100
AcDbEntity
  8
1
  6
CONTINUOUS
 62
           3
100
AcDbLine
 10
-149.135675471004
 20
679.236543963112
 11
-149.631755635743
 21
683.709116429842
  0
LINE
  5
10D
100
AcDbEntity
  8
1
  6
CONTINUOUS
 62
           3
100
AcDbLine
 10
-149.567452669302
 20
683.716248662226
 11
-149.071372504564
 21
679.243676195495
  0
LINE
  5
10C
100
AcDbEntity
  8
1
  6
CONTINUOUS
 62
           3
100
AcDbLine
 10
-148.165119640853
 20
679.344194202362
 11
-148.661199805592
 21
683.816766669093
  0
LINE
  5
10B
100
AcDbEntity
  8
1
  6
CONTINUOUS
 62
           3
100
AcDbLine
 10
-148.349994390437
 20
683.851284350978
 11
-147.853914225698
 21
679.378711884248
  0
LINE
  5
10A
100
AcDbEntity
  8
1
  6
CONTINUOUS
 62
           3
100
AcDbLine
 10
-147.562055118493
 20
679.41108374967
 11
-148.058135283232
 21
683.8836562164
  0
LINE
  5
109
100
AcDbEntity
  8
1
  6
CONTINUOUS
 62
           3
100
AcDbLine
 10
-146.916190055701
 20
684.010316294199
 11
-146.420109890962
 21
679.537743827469
  0
LINE
  5
108
100
AcDbEntity
  8
1
  6
CONTINUOUS
 62
           3
100
AcDbLine
 10
-146.698091235907
 20
684.034506958354
 11
-146.202011071168
 21
679.561934491624
  0
LINE
  5
107
100
AcDbEntity
  8
1
  6
CONTINUOUS
 62
           3
100
AcDbLine
 10
-145.711165026115
 20
679.616377206349
 11
-146.207245190854
 21
684.088949673079
  0
LINE
  5
106
100
AcDbEntity
  8
1
  6
CONTINUOUS
 62
           3
100
AcDbLine
 10
-144.941389154773
 20
684.229353450902
 11
-144.445308990034
 21
679.756780984171
  0
LINE
  5
105
100
AcDbEntity
  8
1
  6
CONTINUOUS
 62
           3
100
AcDbLine
 10
-144.341665797667
 20
679.768276679842
 11
-144.837745962406
 21
684.240849146573
  0
LINE
  5
104
100
AcDbEntity
  8
1
  6
CONTINUOUS
 62
           7
100
AcDbLine
 10
-150.545537626289
 20
679.080167592364
 11
-144.085155174345
 21
679.79672783032
  0
LINE
  5
103
100
AcDbEntity
  8
1
  6
CONTINUOUS
 62
           7
100
AcDbLine
 10
-150.599785313029
 20
684.104812573702
 11
-147.55581452904
 21
684.442437852938
  0
LINE
  5
102
100
AcDbEntity
  8
1
  6
CONTINUOUS
 62
           7
100
AcDbLine
 10
-150.599785313029
 20
684.104812573702
 11
-151.041617791028
 21
683.552740059094
  0
LINE
  5
101
100
AcDbEntity
  8
1
  6
CONTINUOUS
 62
           7
100
AcDbLine
 10
-150.545537626289
 20
679.080167592364
 11
-151.041617791028
 21
683.552740059094
  0
LINE
  5
100
100
AcDbEntity
  8
1
  6
CONTINUOUS
 62
           7
100
AcDbLine
 10
-144.581235339084
 20
684.26930029705
 11
-151.041617791028
 21
683.552740059094
  0
LINE
  5
FF
100
AcDbEntity
  8
1
  6
CONTINUOUS
 62
           7
100
AcDbLine
 10
-147.55581452904
 20
684.442437852938
 11
-144.636355357389
 21
684.766252793354
  0
LINE
  5
FE
100
AcDbEntity
  8
1
  6
CONTINUOUS
 62
           7
100
AcDbLine
 10
-141.80372612846
 20
685.080436897689
 11
-142.078731903964
 21
687.559841129377
  0
LINE
  5
FD
100
AcDbEntity
  8
1
  6
CONTINUOUS
 62
           7
100
AcDbLine
 10
-138.5084376784
 20
679.409143039061
 11
-143.974915137737
 21
678.802822837714
  0
LINE
  5
FC
100
AcDbEntity
  8
1
  6
CONTINUOUS
 62
           3
100
AcDbLine
 10
-138.344665680753
 20
684.961036099326
 11
-137.848585516014
 21
680.488463632596
  0
LINE
  5
FB
100
AcDbEntity
  8
1
  6
CONTINUOUS
 62
           3
100
AcDbLine
 10
-138.078935666146
 20
680.462914099017
 11
-138.575015830885
 21
684.935486565747
  0
LINE
  5
FA
100
AcDbEntity
  8
1
  6
CONTINUOUS
 62
           3
100
AcDbLine
 10
-138.660785821502
 20
680.398377565944
 11
-139.156865986241
 21
684.870950032674
  0
LINE
  5
F9
100
AcDbEntity
  8
1
  6
CONTINUOUS
 62
           3
100
AcDbLine
 10
-139.530715042426
 20
684.829484164259
 11
-139.034634877687
 21
680.356911697529
  0
LINE
  5
F8
100
AcDbEntity
  8
1
  6
CONTINUOUS
 62
           3
100
AcDbLine
 10
-139.098937844128
 20
680.349779465145
 11
-139.595018008867
 21
684.822351931876
  0
LINE
  5
F7
100
AcDbEntity
  8
1
  6
CONTINUOUS
 62
           3
100
AcDbLine
 10
-140.501270872577
 20
684.721833925008
 11
-140.005190707838
 21
680.249261458278
  0
LINE
  5
F6
100
AcDbEntity
  8
1
  6
CONTINUOUS
 62
           3
100
AcDbLine
 10
-140.316396122993
 20
680.214743776392
 11
-140.812476287732
 21
684.687316243123
  0
LINE
  5
F5
100
AcDbEntity
  8
1
  6
CONTINUOUS
 62
           3
100
AcDbLine
 10
-141.104335394937
 20
684.654944377701
 11
-140.608255230198
 21
680.18237191097
  0
LINE
  5
F4
100
AcDbEntity
  8
1
  6
CONTINUOUS
 62
           3
100
AcDbLine
 10
-141.750200457729
 20
680.055711833172
 11
-142.246280622468
 21
684.528284299902
  0
LINE
  5
F3
100
AcDbEntity
  8
1
  6
CONTINUOUS
 62
           3
100
AcDbLine
 10
-141.968299277523
 20
680.031521169017
 11
-142.464379442262
 21
684.504093635747
  0
LINE
  5
F2
100
AcDbEntity
  8
1
  6
CONTINUOUS
 62
           3
100
AcDbLine
 10
-142.955225487315
 20
684.449650921022
 11
-142.459145322576
 21
679.977078454292
  0
LINE
  5
F1
100
AcDbEntity
  8
1
  6
CONTINUOUS
 62
           3
100
AcDbLine
 10
-143.725001358657
 20
679.836674676469
 11
-144.221081523396
 21
684.309247143199
  0
LINE
  5
F0
100
AcDbEntity
  8
1
  6
CONTINUOUS
 62
           3
100
AcDbLine
 10
-144.324724715763
 20
684.297751447528
 11
-143.828644551025
 21
679.825178980798
  0
LINE
  5
EF
100
AcDbEntity
  8
1
  6
CONTINUOUS
 62
           7
100
AcDbLine
 10
-144.085155174345
 20
679.79672783032
 11
-137.624772722402
 21
680.513288068277
  0
LINE
  5
EE
100
AcDbEntity
  8
1
  6
CONTINUOUS
 62
           7
100
AcDbLine
 10
-141.716896185738
 20
685.09006773377
 11
-138.672925401749
 21
685.427693013006
  0
LINE
  5
ED
100
AcDbEntity
  8
1
  6
CONTINUOUS
 62
           7
100
AcDbLine
 10
-138.120852887141
 20
684.985860535007
 11
-138.672925401749
 21
685.427693013006
  0
LINE
  5
EC
100
AcDbEntity
  8
1
  6
CONTINUOUS
 62
           7
100
AcDbLine
 10
-138.120852887141
 20
684.985860535007
 11
-137.624772722402
 21
680.513288068277
  0
LINE
  5
EB
100
AcDbEntity
  8
1
  6
CONTINUOUS
 62
           7
100
AcDbLine
 10
-138.120852887141
 20
684.985860535007
 11
-144.581235339084
 21
684.26930029705
  0
LINE
  5
EA
100
AcDbEntity
  8
1
  6
CONTINUOUS
 62
           7
100
AcDbLine
 10
-144.636355357389
 20
684.766252793354
 11
-141.716896185738
 21
685.09006773377
  0
LINE
  5
E9
100
AcDbEntity
  8
1
  6
CONTINUOUS
 62
           7
100
AcDbLine
 10
-171.621783412888
 20
769.738665010137
 11
-169.030494515322
 21
770.026080593172
  0
LINE
  5
E8
100
AcDbEntity
  8
1
  6
CONTINUOUS
 62
           7
100
AcDbLine
 10
-180.961368266998
 20
766.892601494632
 11
-180.464415770695
 21
766.947721512936
  0
LINE
  5
E7
100
AcDbEntity
  8
1
  6
CONTINUOUS
 62
           7
100
AcDbLine
 10
-181.787296209998
 20
778.874581424217
 11
-182.284248706302
 21
778.819461405912
  0
LINE
  5
E6
100
AcDbEntity
  8
1
  6
CONTINUOUS
 62
           7
100
AcDbLine
 10
-180.464415770695
 20
766.947721512936
 11
-181.787296209998
 21
778.874581424217
  0
LINE
  5
E5
100
AcDbEntity
  8
1
  6
CONTINUOUS
 62
           7
100
AcDbLine
 10
-174.749462063206
 20
767.581601723436
 11
-180.464415770695
 21
766.947721512936
  0
LINE
  5
E4
100
AcDbEntity
  8
1
  6
CONTINUOUS
 62
           7
100
AcDbLine
 10
-176.07234250251
 20
779.508461634716
 11
-174.749462063206
 21
767.581601723436
  0
LINE
  5
E3
100
AcDbEntity
  8
1
  6
CONTINUOUS
 62
           7
100
AcDbLine
 10
-182.284248706302
 20
778.819461405912
 11
-176.07234250251
 21
779.508461634716
  0
LINE
  5
E2
100
AcDbEntity
  8
1
  6
CONTINUOUS
 62
           7
100
AcDbLine
 10
-171.767747085386
 20
767.912321833262
 11
-173.09062752469
 21
779.839181744542
  0
LINE
  5
E1
100
AcDbEntity
  8
1
  6
CONTINUOUS
 62
           7
100
AcDbLine
 10
-169.178691085894
 20
771.362195093035
 11
-171.769979983459
 21
771.07477951
  0
LINE
  5
E0
100
AcDbEntity
  8
1
  6
CONTINUOUS
 62
           7
100
AcDbLine
 10
-169.030494515322
 20
770.026080593172
 11
-169.178691085894
 21
771.362195093035
  0
LINE
  5
DF
100
AcDbEntity
  8
1
  6
CONTINUOUS
 62
           7
100
AcDbLine
 10
-171.769979983459
 20
771.07477951
 11
-171.621783412888
 21
769.738665010137
  0
LINE
  5
DE
100
AcDbEntity
  8
1
  6
CONTINUOUS
 62
           7
100
AcDbLine
 10
-169.956704721586
 20
778.376630688475
 11
-172.547993619151
 21
778.08921510544
  0
LINE
  5
DD
100
AcDbEntity
  8
1
  6
CONTINUOUS
 62
           7
100
AcDbLine
 10
-169.808508151014
 20
777.040516188612
 11
-169.956704721586
 21
778.376630688475
  0
LINE
  5
DC
100
AcDbEntity
  8
1
  6
CONTINUOUS
 62
           7
100
AcDbLine
 10
-172.39979704858
 20
776.753100605578
 11
-169.808508151014
 21
777.040516188612
  0
LINE
  5
DB
100
AcDbEntity
  8
1
  6
CONTINUOUS
 62
           7
100
AcDbLine
 10
-172.547993619151
 20
778.08921510544
 11
-172.39979704858
 21
776.753100605578
  0
LINE
  5
DA
100
AcDbEntity
  8
1
  6
CONTINUOUS
 62
           7
100
AcDbLine
 10
-168.763460701305
 20
770.760876435587
 11
-169.535140957566
 21
777.718211383834
  0
LINE
  5
D9
100
AcDbEntity
  8
1
  6
CONTINUOUS
 62
           7
100
AcDbLine
 10
-168.763460701305
 20
770.760876435587
 11
-167.769555708699
 21
770.871116472196
  0
LINE
  5
D8
100
AcDbEntity
  8
1
  6
CONTINUOUS
 62
           7
100
AcDbLine
 10
-168.432740591479
 20
767.779161457767
 11
-168.763460701305
 21
770.760876435587
  0
LINE
  5
D7
100
AcDbEntity
  8
1
  6
CONTINUOUS
 62
           7
100
AcDbLine
 10
-168.710895358533
 20
767.144630193316
 11
-168.432740591479
 21
767.779161457767
  0
LINE
  5
D6
100
AcDbEntity
  8
1
  6
CONTINUOUS
 62
           7
100
AcDbLine
 10
-171.302184256098
 20
766.857214610281
 11
-168.710895358533
 21
767.144630193316
  0
LINE
  5
D5
100
AcDbEntity
  8
1
  6
CONTINUOUS
 62
           7
100
AcDbLine
 10
-171.712627067082
 20
767.415369336958
 11
-171.302184256098
 21
766.857214610281
  0
LINE
  5
D4
100
AcDbEntity
  8
1
  6
CONTINUOUS
 62
           7
100
AcDbLine
 10
-171.767747085386
 20
767.912321833262
 11
-171.712627067082
 21
767.415369336958
  0
LINE
  5
D3
100
AcDbEntity
  8
1
  6
CONTINUOUS
 62
           7
100
AcDbLine
 10
-174.749462063206
 20
767.581601723436
 11
-171.767747085386
 21
767.912321833262
  0
LINE
  5
D2
100
AcDbEntity
  8
1
  6
CONTINUOUS
 62
           7
100
AcDbLine
 10
-174.694342044902
 20
767.084649227132
 11
-174.749462063206
 21
767.581601723436
  0
LINE
  5
D1
100
AcDbEntity
  8
1
  6
CONTINUOUS
 62
           7
100
AcDbLine
 10
-180.40929575239
 20
766.450769016633
 11
-174.694342044902
 21
767.084649227132
  0
LINE
  5
D0
100
AcDbEntity
  8
1
  6
CONTINUOUS
 62
           7
100
AcDbLine
 10
-181.789477038909
 20
767.55535021163
 11
-180.40929575239
 21
766.450769016633
  0
LINE
  5
CF
100
AcDbEntity
  8
1
  6
CONTINUOUS
 62
           7
100
AcDbLine
 10
-182.9469974233
 20
777.991352634001
 11
-181.789477038909
 21
767.55535021163
  0
LINE
  5
CE
100
AcDbEntity
  8
1
  6
CONTINUOUS
 62
           7
100
AcDbLine
 10
-181.842416228303
 20
779.37153392052
 11
-182.9469974233
 21
777.991352634001
  0
LINE
  5
CD
100
AcDbEntity
  8
1
  6
CONTINUOUS
 62
           7
100
AcDbLine
 10
-176.127462520814
 20
780.00541413102
 11
-181.842416228303
 21
779.37153392052
  0
LINE
  5
CC
100
AcDbEntity
  8
1
  6
CONTINUOUS
 62
           7
100
AcDbLine
 10
-176.07234250251
 20
779.508461634716
 11
-176.127462520814
 21
780.00541413102
  0
LINE
  5
CB
100
AcDbEntity
  8
1
  6
CONTINUOUS
 62
           7
100
AcDbLine
 10
-173.09062752469
 20
779.839181744542
 11
-176.07234250251
 21
779.508461634716
  0
LINE
  5
CA
100
AcDbEntity
  8
1
  6
CONTINUOUS
 62
           7
100
AcDbLine
 10
-173.145747542994
 20
780.336134240845
 11
-173.09062752469
 21
779.839181744542
  0
LINE
  5
C9
100
AcDbEntity
  8
1
  6
CONTINUOUS
 62
           7
100
AcDbLine
 10
-172.867592775941
 20
780.970665505296
 11
-173.145747542994
 21
780.336134240845
  0
LINE
  5
C8
100
AcDbEntity
  8
1
  6
CONTINUOUS
 62
           7
100
AcDbLine
 10
-170.276303878375
 20
781.258081088331
 11
-172.867592775941
 21
780.970665505296
  0
LINE
  5
C7
100
AcDbEntity
  8
1
  6
CONTINUOUS
 62
           7
100
AcDbLine
 10
-169.865861067392
 20
780.699926361654
 11
-170.276303878375
 21
781.258081088331
  0
LINE
  5
C6
100
AcDbEntity
  8
1
  6
CONTINUOUS
 62
           7
100
AcDbLine
 10
-169.535140957566
 20
777.718211383834
 11
-169.865861067392
 21
780.699926361654
  0
LINE
  5
C5
100
AcDbEntity
  8
1
  6
CONTINUOUS
 62
           7
100
AcDbLine
 10
-168.541235964959
 20
777.828451420443
 11
-169.535140957566
 21
777.718211383834
  0
LINE
  5
C4
100
AcDbEntity
  8
1
  6
CONTINUOUS
 62
           7
100
AcDbLine
 10
-149.063861386445
 20
676.688874467558
 11
-148.897321391688
 21
675.187378846272
  0
LINE
  5
C3
100
AcDbEntity
  8
1
  6
CONTINUOUS
 62
           7
100
AcDbLine
 10
-148.897321391688
 20
675.187378846272
 11
-150.020259553317
 21
673.71417401285
  0
LINE
  5
C2
100
AcDbEntity
  8
1
  6
CONTINUOUS
 62
           7
100
AcDbLine
 10
-150.020259553317
 20
673.71417401285
 11
-149.381994109308
 21
667.959683802898
  0
LINE
  5
C1
100
AcDbEntity
  8
1
  6
CONTINUOUS
 62
           7
100
AcDbLine
 10
-149.381994109308
 20
667.959683802898
 11
-149.336758878355
 21
667.876591676334
  0
LINE
  5
C0
100
AcDbEntity
  8
1
  6
CONTINUOUS
 62
           7
100
AcDbLine
 10
-149.336758878355
 20
667.876591676334
 11
-149.261055271345
 21
667.773810604625
  0
LINE
  5
BF
100
AcDbEntity
  8
1
  6
CONTINUOUS
 62
           7
100
AcDbLine
 10
-149.261055271345
 20
667.773810604625
 11
-149.178081776188
 21
667.70951536318
  0
LINE
  5
BE
100
AcDbEntity
  8
1
  6
CONTINUOUS
 62
           7
100
AcDbLine
 10
-149.178081776188
 20
667.70951536318
 11
-147.645575270177
 21
666.521993063031
  0
LINE
  5
BD
100
AcDbEntity
  8
1
  6
CONTINUOUS
 62
           7
100
AcDbLine
 10
-147.645575270177
 20
666.521993063031
 11
-147.468407375038
 21
666.42162446729
  0
LINE
  5
BC
100
AcDbEntity
  8
1
  6
CONTINUOUS
 62
           7
100
AcDbLine
 10
-147.468407375038
 20
666.42162446729
 11
-147.255343429089
 21
666.347453004055
  0
LINE
  5
BB
100
AcDbEntity
  8
1
  6
CONTINUOUS
 62
           7
100
AcDbLine
 10
-147.255343429089
 20
666.347453004055
 11
-146.924095226488
 21
666.280589298451
  0
LINE
  5
BA
100
AcDbEntity
  8
1
  6
CONTINUOUS
 62
           7
100
AcDbLine
 10
-146.924095226488
 20
666.280589298451
 11
-146.339344899162
 21
666.211797036312
  0
LINE
  5
B9
100
AcDbEntity
  8
1
  6
CONTINUOUS
 62
           7
100
AcDbLine
 10
-146.339344899162
 20
666.211797036312
 11
-145.596907806123
 21
666.178956195972
  0
LINE
  5
B8
100
AcDbEntity
  8
1
  6
CONTINUOUS
 62
           7
100
AcDbLine
 10
-145.596907806123
 20
666.178956195972
 11
-144.797202789474
 21
666.18371306477
  0
LINE
  5
B7
100
AcDbEntity
  8
1
  6
CONTINUOUS
 62
           7
100
AcDbLine
 10
-144.797202789474
 20
666.18371306477
 11
-144.087778056138
 21
666.213420296677
  0
LINE
  5
B6
100
AcDbEntity
  8
1
  6
CONTINUOUS
 62
           7
100
AcDbLine
 10
-144.087778056138
 20
666.213420296677
 11
-143.250887657792
 21
666.273939109132
  0
LINE
  5
B5
100
AcDbEntity
  8
1
  6
CONTINUOUS
 62
           7
100
AcDbLine
 10
-143.250887657792
 20
666.273939109132
 11
-142.363130363641
 21
666.365481671535
  0
LINE
  5
B4
100
AcDbEntity
  8
1
  6
CONTINUOUS
 62
           7
100
AcDbLine
 10
-142.363130363641
 20
666.365481671535
 11
-141.221305845582
 21
666.524385568351
  0
LINE
  5
B3
100
AcDbEntity
  8
1
  6
CONTINUOUS
 62
           7
100
AcDbLine
 10
-141.221305845582
 20
666.524385568351
 11
-140.2150309397
 21
666.707693544058
  0
LINE
  5
B2
100
AcDbEntity
  8
1
  6
CONTINUOUS
 62
           7
100
AcDbLine
 10
-140.2150309397
 20
666.707693544058
 11
-138.937709760198
 21
667.023617452644
  0
LINE
  5
B1
100
AcDbEntity
  8
1
  6
CONTINUOUS
 62
           7
100
AcDbLine
 10
-138.937709760198
 20
667.023617452644
 11
-138.196260862208
 21
667.29076270819
  0
LINE
  5
B0
100
AcDbEntity
  8
1
  6
CONTINUOUS
 62
           7
100
AcDbLine
 10
-138.196260862208
 20
667.29076270819
 11
-137.8283262998
 21
667.498989701084
  0
LINE
  5
AF
100
AcDbEntity
  8
1
  6
CONTINUOUS
 62
           7
100
AcDbLine
 10
-137.8283262998
 20
667.498989701084
 11
-137.723108685933
 21
667.582254739547
  0
LINE
  5
AE
100
AcDbEntity
  8
1
  6
CONTINUOUS
 62
           7
100
AcDbLine
 10
-137.723108685933
 20
667.582254739547
 11
-136.778311735999
 21
668.785381314305
  0
LINE
  5
AD
100
AcDbEntity
  8
1
  6
CONTINUOUS
 62
           7
100
AcDbLine
 10
-136.778311735999
 20
668.785381314305
 11
-136.305186121581
 21
669.410111964558
  0
LINE
  5
AC
100
AcDbEntity
  8
1
  6
CONTINUOUS
 62
           7
100
AcDbLine
 10
-136.305186121581
 20
669.410111964558
 11
-136.943451565591
 21
675.16460217451
  0
LINE
  5
AB
100
AcDbEntity
  8
1
  6
CONTINUOUS
 62
           7
100
AcDbLine
 10
-136.920416311879
 20
675.146752411808
 11
-138.336853450564
 21
676.319683298179
  0
LINE
  5
AA
100
AcDbEntity
  8
1
  6
CONTINUOUS
 62
           7
100
AcDbLine
 10
-138.336853450564
 20
676.319683298179
 11
-138.633877619068
 21
675.983421080031
  0
LINE
  5
A9
100
AcDbEntity
  8
1
  6
CONTINUOUS
 62
           7
100
AcDbLine
 10
-138.65691287278
 20
676.001270842733
 11
-138.899176112701
 21
675.824487093552
  0
LINE
  5
A8
100
AcDbEntity
  8
1
  6
CONTINUOUS
 62
           7
100
AcDbLine
 10
-138.899176112701
 20
675.824487093552
 11
-139.268283566059
 21
675.652410558613
  0
LINE
  5
A7
100
AcDbEntity
  8
1
  6
CONTINUOUS
 62
           7
100
AcDbLine
 10
-139.268283566059
 20
675.652410558613
 11
-140.179665847056
 21
675.354976290673
  0
LINE
  5
A6
100
AcDbEntity
  8
1
  6
CONTINUOUS
 62
           7
100
AcDbLine
 10
-140.179665847056
 20
675.354976290673
 11
-141.002599471404
 21
675.157380343698
  0
LINE
  5
A5
100
AcDbEntity
  8
1
  6
CONTINUOUS
 62
           7
100
AcDbLine
 10
-141.002599471404
 20
675.157380343698
 11
-142.33827291136
 21
674.914640767759
  0
LINE
  5
A4
100
AcDbEntity
  8
1
  6
CONTINUOUS
 62
           7
100
AcDbLine
 10
-142.33827291136
 20
674.914640767759
 11
-143.756744156758
 21
674.733650487253
  0
LINE
  5
A3
100
AcDbEntity
  8
1
  6
CONTINUOUS
 62
           7
100
AcDbLine
 10
-143.756744156758
 20
674.733650487253
 11
-145.062258975022
 21
674.63017036019
  0
LINE
  5
A2
100
AcDbEntity
  8
1
  6
CONTINUOUS
 62
           7
100
AcDbLine
 10
-145.062258975022
 20
674.63017036019
 11
-146.306860966434
 21
674.595717938902
  0
LINE
  5
A1
100
AcDbEntity
  8
1
  6
CONTINUOUS
 62
           7
100
AcDbLine
 10
-146.306860966434
 20
674.595717938902
 11
-147.440983418166
 21
674.645204277503
  0
LINE
  5
A0
100
AcDbEntity
  8
1
  6
CONTINUOUS
 62
           7
100
AcDbLine
 10
-147.440983418166
 20
674.645204277503
 11
-148.14200374057
 21
674.755091442585
  0
LINE
  5
9F
100
AcDbEntity
  8
1
  6
CONTINUOUS
 62
           7
100
AcDbLine
 10
-148.14200374057
 20
674.755091442585
 11
-148.537333388193
 21
674.915346685229
  0
LINE
  5
9E
100
AcDbEntity
  8
1
  6
CONTINUOUS
 62
           7
100
AcDbLine
 10
-148.537333388193
 20
674.915346685229
 11
-148.897321391688
 21
675.187378846272
  0
LINE
  5
9D
100
AcDbEntity
  8
1
  6
CONTINUOUS
 62
           7
100
AcDbLine
 10
-148.874286137977
 20
675.16952908357
 11
-148.901495164391
 21
675.133833022472
  0
LINE
  5
9C
100
AcDbEntity
  8
1
  6
CONTINUOUS
 62
           7
100
AcDbLine
 10
-150.020259553317
 20
673.71417401285
 11
-149.656077666343
 21
673.39311377
  0
LINE
  5
9B
100
AcDbEntity
  8
1
  6
CONTINUOUS
 62
           7
100
AcDbLine
 10
-149.656077666343
 20
673.39311377
 11
-149.256122991883
 21
673.280885524725
  0
LINE
  5
9A
100
AcDbEntity
  8
1
  6
CONTINUOUS
 62
           7
100
AcDbLine
 10
-149.256122991883
 20
673.280885524725
 11
-148.464394795783
 21
673.159156813342
  0
LINE
  5
99
100
AcDbEntity
  8
1
  6
CONTINUOUS
 62
           7
100
AcDbLine
 10
-148.464394795783
 20
673.159156813342
 11
-147.484891105655
 21
673.100187066642
  0
LINE
  5
98
100
AcDbEntity
  8
1
  6
CONTINUOUS
 62
           7
100
AcDbLine
 10
-147.484891105655
 20
673.100187066642
 11
-146.258963960981
 21
673.100402544993
  0
LINE
  5
97
100
AcDbEntity
  8
1
  6
CONTINUOUS
 62
           7
100
AcDbLine
 10
-146.258963960981
 20
673.100402544993
 11
-144.753396110384
 21
673.175441838216
  0
LINE
  5
96
100
AcDbEntity
  8
1
  6
CONTINUOUS
 62
           7
100
AcDbLine
 10
-144.753396110384
 20
673.175441838216
 11
-143.721943634304
 21
673.265206873914
  0
LINE
  5
95
100
AcDbEntity
  8
1
  6
CONTINUOUS
 62
           7
100
AcDbLine
 10
-144.19138230523
 20
673.224352661015
 11
-142.953831091575
 21
673.350768927551
  0
LINE
  5
94
100
AcDbEntity
  8
1
  6
CONTINUOUS
 62
           7
100
AcDbLine
 10
-142.953831091575
 20
673.350768927551
 11
-142.078224530185
 21
673.467973623653
  0
LINE
  5
93
100
AcDbEntity
  8
1
  6
CONTINUOUS
 62
           7
100
AcDbLine
 10
-142.078224530185
 20
673.467973623653
 11
-140.881023935149
 21
673.664642002345
  0
LINE
  5
92
100
AcDbEntity
  8
1
  6
CONTINUOUS
 62
           7
100
AcDbLine
 10
-140.881023935149
 20
673.664642002345
 11
-139.349750929133
 21
673.99335740037
  0
LINE
  5
91
100
AcDbEntity
  8
1
  6
CONTINUOUS
 62
           7
100
AcDbLine
 10
-139.349750929133
 20
673.99335740037
 11
-138.416358968344
 21
674.257066608713
  0
LINE
  5
90
100
AcDbEntity
  8
1
  6
CONTINUOUS
 62
           7
100
AcDbLine
 10
-138.416358968344
 20
674.257066608713
 11
-137.502496571993
 21
674.606096232002
  0
LINE
  5
8F
100
AcDbEntity
  8
1
  6
CONTINUOUS
 62
           7
100
AcDbLine
 10
-137.502496571993
 20
674.606096232002
 11
-137.165112129546
 21
674.857230356224
  0
LINE
  5
8E
100
AcDbEntity
  8
1
  6
CONTINUOUS
 62
           7
100
AcDbLine
 10
-137.165112129546
 20
674.857230356224
 11
-136.943451565591
 21
675.16460217451
  0
LINE
  5
8D
100
AcDbEntity
  8
1
  6
CONTINUOUS
 62
           7
100
AcDbLine
 10
-136.866937378174
 20
674.474763571242
 11
-137.082281323511
 21
674.174640603526
  0
LINE
  5
8C
100
AcDbEntity
  8
1
  6
CONTINUOUS
 62
           7
100
AcDbLine
 10
-137.082281323511
 20
674.174640603526
 11
-137.517089540044
 21
673.875104973194
  0
LINE
  5
8B
100
AcDbEntity
  8
1
  6
CONTINUOUS
 62
           7
100
AcDbLine
 10
-137.517089540044
 20
673.875104973194
 11
-138.609740178933
 21
673.482567126951
  0
LINE
  5
8A
100
AcDbEntity
  8
1
  6
CONTINUOUS
 62
           7
100
AcDbLine
 10
-138.609740178933
 20
673.482567126951
 11
-140.406295477596
 21
673.050730411151
  0
LINE
  5
89
100
AcDbEntity
  8
1
  6
CONTINUOUS
 62
           7
100
AcDbLine
 10
-140.406295477596
 20
673.050730411151
 11
-142.247024008797
 21
672.743133052391
  0
LINE
  5
88
100
AcDbEntity
  8
1
  6
CONTINUOUS
 62
           7
100
AcDbLine
 10
-142.247024008797
 20
672.743133052391
 11
-144.057729469234
 21
672.535990991847
  0
LINE
  5
87
100
AcDbEntity
  8
1
  6
CONTINUOUS
 62
           7
100
AcDbLine
 10
-144.057729469234
 20
672.535990991847
 11
-145.894864675283
 21
672.419239901303
  0
LINE
  5
86
100
AcDbEntity
  8
1
  6
CONTINUOUS
 62
           7
100
AcDbLine
 10
-145.894864675283
 20
672.419239901303
 11
-147.810703605285
 21
672.426743109267
  0
LINE
  5
85
100
AcDbEntity
  8
1
  6
CONTINUOUS
 62
           7
100
AcDbLine
 10
-147.810703605285
 20
672.426743109267
 11
-149.091098968175
 21
672.571288587025
  0
LINE
  5
84
100
AcDbEntity
  8
1
  6
CONTINUOUS
 62
           7
100
AcDbLine
 10
-149.091098968175
 20
672.571288587025
 11
-149.55593814949
 21
672.695394886433
  0
LINE
  5
83
100
AcDbEntity
  8
1
  6
CONTINUOUS
 62
           7
100
AcDbLine
 10
-149.55593814949
 20
672.695394886433
 11
-149.874950837909
 21
672.903559372966
  0
LINE
  5
82
100
AcDbEntity
  8
1
  6
CONTINUOUS
 62
           7
100
AcDbLine
 10
-149.874950837909
 20
672.903559372966
 11
-149.943745365901
 21
673.024335409582
  0
LINE
  5
81
100
AcDbEntity
  8
1
  6
CONTINUOUS
 62
           7
100
AcDbLine
 10
-149.823394263655
 20
671.939270808127
 11
-149.545404050686
 21
671.651261262181
  0
LINE
  5
80
100
AcDbEntity
  8
1
  6
CONTINUOUS
 62
           7
100
AcDbLine
 10
-149.545404050686
 20
671.651261262181
 11
-148.98374775462
 21
671.489009727757
  0
LINE
  5
7F
100
AcDbEntity
  8
1
  6
CONTINUOUS
 62
           7
100
AcDbLine
 10
-148.98374775462
 20
671.489009727757
 11
-148.430399973046
 21
671.40121196552
  0
LINE
  5
7E
100
AcDbEntity
  8
1
  6
CONTINUOUS
 62
           7
100
AcDbLine
 10
-148.430399973046
 20
671.40121196552
 11
-147.474330817304
 21
671.331662125161
  0
LINE
  5
7D
100
AcDbEntity
  8
1
  6
CONTINUOUS
 62
           7
100
AcDbLine
 10
-147.474330817304
 20
671.331662125161
 11
-146.386357344356
 21
671.319306075126
  0
LINE
  5
7C
100
AcDbEntity
  8
1
  6
CONTINUOUS
 62
           7
100
AcDbLine
 10
-146.386357344356
 20
671.319306075126
 11
-145.025044833565
 21
671.3696467661
  0
LINE
  5
7B
100
AcDbEntity
  8
1
  6
CONTINUOUS
 62
           7
100
AcDbLine
 10
-145.025044833565
 20
671.3696467661
 11
-144.130579238737
 21
671.434067971548
  0
LINE
  5
7A
100
AcDbEntity
  8
1
  6
CONTINUOUS
 62
           7
100
AcDbLine
 10
-144.130579238737
 20
671.434067971548
 11
-143.030837490358
 21
671.543542300811
  0
LINE
  5
79
100
AcDbEntity
  8
1
  6
CONTINUOUS
 62
           7
100
AcDbLine
 10
-143.030837490358
 20
671.543542300811
 11
-142.099323905265
 21
671.661886104796
  0
LINE
  5
78
100
AcDbEntity
  8
1
  6
CONTINUOUS
 62
           7
100
AcDbLine
 10
-142.099323905265
 20
671.661886104796
 11
-140.814693355222
 21
671.866093065548
  0
LINE
  5
77
100
AcDbEntity
  8
1
  6
CONTINUOUS
 62
           7
100
AcDbLine
 10
-140.814693355222
 20
671.866093065548
 11
-138.941951819319
 21
672.272233311204
  0
LINE
  5
76
100
AcDbEntity
  8
1
  6
CONTINUOUS
 62
           7
100
AcDbLine
 10
-138.941951819319
 20
672.272233311204
 11
-137.690813162641
 21
672.674162773444
  0
LINE
  5
75
100
AcDbEntity
  8
1
  6
CONTINUOUS
 62
           7
100
AcDbLine
 10
-137.690813162641
 20
672.674162773444
 11
-137.193243540293
 21
672.891761887734
  0
LINE
  5
74
100
AcDbEntity
  8
1
  6
CONTINUOUS
 62
           7
100
AcDbLine
 10
-137.193243540293
 20
672.891761887734
 11
-136.924956898997
 21
673.134168701996
  0
LINE
  5
73
100
AcDbEntity
  8
1
  6
CONTINUOUS
 62
           7
100
AcDbLine
 10
-136.924956898997
 20
673.134168701996
 11
-136.746586275929
 21
673.389698969787
  0
LINE
  5
72
100
AcDbEntity
  8
1
  6
CONTINUOUS
 62
           7
100
AcDbLine
 10
-136.626235173684
 20
672.304634368333
 11
-136.847303670729
 21
671.997937354869
  0
LINE
  5
71
100
AcDbEntity
  8
1
  6
CONTINUOUS
 62
           7
100
AcDbLine
 10
-136.847303670729
 20
671.997937354869
 11
-137.228073886987
 21
671.72614469677
  0
LINE
  5
70
100
AcDbEntity
  8
1
  6
CONTINUOUS
 62
           7
100
AcDbLine
 10
-137.228073886987
 20
671.72614469677
 11
-138.188362767101
 21
671.368066769878
  0
LINE
  5
6F
100
AcDbEntity
  8
1
  6
CONTINUOUS
 62
           7
100
AcDbLine
 10
-138.188362767101
 20
671.368066769878
 11
-138.984288675415
 21
671.145493705018
  0
LINE
  5
6E
100
AcDbEntity
  8
1
  6
CONTINUOUS
 62
           7
100
AcDbLine
 10
-138.984288675415
 20
671.145493705018
 11
-140.628361037024
 21
670.792907824046
  0
LINE
  5
6D
100
AcDbEntity
  8
1
  6
CONTINUOUS
 62
           7
100
AcDbLine
 10
-140.628361037024
 20
670.792907824046
 11
-142.663828864895
 21
670.487498262745
  0
LINE
  5
6C
100
AcDbEntity
  8
1
  6
CONTINUOUS
 62
           7
100
AcDbLine
 10
-142.663828864895
 20
670.487498262745
 11
-144.491901228672
 21
670.311465009854
  0
LINE
  5
6B
100
AcDbEntity
  8
1
  6
CONTINUOUS
 62
           7
100
AcDbLine
 10
-144.491901228672
 20
670.311465009854
 11
-145.912266037621
 21
670.241189613081
  0
LINE
  5
6A
100
AcDbEntity
  8
1
  6
CONTINUOUS
 62
           7
100
AcDbLine
 10
-145.912266037621
 20
670.241189613081
 11
-147.762424798132
 21
670.268117275819
  0
LINE
  5
69
100
AcDbEntity
  8
1
  6
CONTINUOUS
 62
           7
100
AcDbLine
 10
-147.762424798132
 20
670.268117275819
 11
-148.757163063815
 21
670.382346333947
  0
LINE
  5
68
100
AcDbEntity
  8
1
  6
CONTINUOUS
 62
           7
100
AcDbLine
 10
-148.757163063815
 20
670.382346333947
 11
-149.444148953998
 21
670.57485893686
  0
LINE
  5
67
100
AcDbEntity
  8
1
  6
CONTINUOUS
 62
           7
100
AcDbLine
 10
-149.444148953998
 20
670.57485893686
 11
-149.70304316141
 21
670.854206206673
  0
LINE
  5
66
100
AcDbEntity
  8
1
  6
CONTINUOUS
 62
           7
100
AcDbLine
 10
-149.582692059165
 20
669.769141605217
 11
-149.442249025581
 21
669.564865165772
  0
LINE
  5
65
100
AcDbEntity
  8
1
  6
CONTINUOUS
 62
           7
100
AcDbLine
 10
-149.442249025581
 20
669.564865165772
 11
-149.125406515182
 21
669.418472977514
  0
LINE
  5
64
100
AcDbEntity
  8
1
  6
CONTINUOUS
 62
           7
100
AcDbLine
 10
-149.125406515182
 20
669.418472977514
 11
-148.795587850508
 21
669.330547606443
  0
LINE
  5
63
100
AcDbEntity
  8
1
  6
CONTINUOUS
 62
           7
100
AcDbLine
 10
-148.795587850508
 20
669.330547606443
 11
-148.115482126657
 21
669.223004342065
  0
LINE
  5
62
100
AcDbEntity
  8
1
  6
CONTINUOUS
 62
           7
100
AcDbLine
 10
-148.115482126657
 20
669.223004342065
 11
-147.164125061204
 21
669.158918975451
  0
LINE
  5
61
100
AcDbEntity
  8
1
  6
CONTINUOUS
 62
           7
100
AcDbLine
 10
-147.164125061204
 20
669.158918975451
 11
-146.151080204425
 21
669.14910688961
  0
LINE
  5
60
100
AcDbEntity
  8
1
  6
CONTINUOUS
 62
           7
100
AcDbLine
 10
-146.151080204425
 20
669.14910688961
 11
-144.506797228022
 21
669.217041680917
  0
LINE
  5
5F
100
AcDbEntity
  8
1
  6
CONTINUOUS
 62
           7
100
AcDbLine
 10
-144.506797228022
 20
669.217041680917
 11
-142.571809310642
 21
669.399016593552
  0
LINE
  5
5E
100
AcDbEntity
  8
1
  6
CONTINUOUS
 62
           7
100
AcDbLine
 10
-142.571809310642
 20
669.399016593552
 11
-141.165633214212
 21
669.595696910312
  0
LINE
  5
5D
100
AcDbEntity
  8
1
  6
CONTINUOUS
 62
           7
100
AcDbLine
 10
-141.165633214212
 20
669.595696910312
 11
-140.054383273472
 21
669.793725926554
  0
LINE
  5
5C
100
AcDbEntity
  8
1
  6
CONTINUOUS
 62
           7
100
AcDbLine
 10
-140.054383273472
 20
669.793725926554
 11
-138.725083339758
 21
670.095914265662
  0
LINE
  5
5B
100
AcDbEntity
  8
1
  6
CONTINUOUS
 62
           7
100
AcDbLine
 10
-138.725083339758
 20
670.095914265662
 11
-137.477776603723
 21
670.493415742322
  0
LINE
  5
5A
100
AcDbEntity
  8
1
  6
CONTINUOUS
 62
           7
100
AcDbLine
 10
-137.477776603723
 20
670.493415742322
 11
-137.019229940377
 21
670.684054552695
  0
LINE
  5
59
100
AcDbEntity
  8
1
  6
CONTINUOUS
 62
           7
100
AcDbLine
 10
-137.019229940377
 20
670.684054552695
 11
-136.803703727216
 21
670.833436233904
  0
LINE
  5
58
100
AcDbEntity
  8
1
  6
CONTINUOUS
 62
           7
100
AcDbLine
 10
-136.803703727216
 20
670.833436233904
 11
-136.698739570931
 21
670.94613441782
  0
LINE
  5
57
100
AcDbEntity
  8
1
  6
CONTINUOUS
 62
           7
100
AcDbLine
 10
-136.698739570931
 20
670.94613441782
 11
-136.505884071439
 21
671.219569766877
  0
LINE
  5
56
100
AcDbEntity
  8
1
  6
CONTINUOUS
 62
           7
100
AcDbLine
 10
-149.46234095692
 20
668.684077003762
 11
-149.268227443202
 21
668.439954129588
  0
LINE
  5
55
100
AcDbEntity
  8
1
  6
CONTINUOUS
 62
           7
100
AcDbLine
 10
-149.268227443202
 20
668.439954129588
 11
-149.02587395353
 21
668.339771886267
  0
LINE
  5
54
100
AcDbEntity
  8
1
  6
CONTINUOUS
 62
           7
100
AcDbLine
 10
-149.02587395353
 20
668.339771886267
 11
-148.601106955798
 21
668.229211861145
  0
LINE
  5
53
100
AcDbEntity
  8
1
  6
CONTINUOUS
 62
           7
100
AcDbLine
 10
-148.601106955798
 20
668.229211861145
 11
-148.149654352925
 21
668.155524438137
  0
LINE
  5
52
100
AcDbEntity
  8
1
  6
CONTINUOUS
 62
           7
100
AcDbLine
 10
-148.149654352925
 20
668.155524438137
 11
-146.986604867155
 21
668.071915124893
  0
LINE
  5
51
100
AcDbEntity
  8
1
  6
CONTINUOUS
 62
           7
100
AcDbLine
 10
-146.986604867155
 20
668.071915124893
 11
-145.457351375407
 21
668.077470928267
  0
LINE
  5
50
100
AcDbEntity
  8
1
  6
CONTINUOUS
 62
           7
100
AcDbLine
 10
-145.457351375407
 20
668.077470928267
 11
-143.773222747511
 21
668.178561566065
  0
LINE
  5
4F
100
AcDbEntity
  8
1
  6
CONTINUOUS
 62
           7
100
AcDbLine
 10
-143.773222747511
 20
668.178561566065
 11
-141.684983937169
 21
668.414191301815
  0
LINE
  5
4E
100
AcDbEntity
  8
1
  6
CONTINUOUS
 62
           7
100
AcDbLine
 10
-141.684983937169
 20
668.414191301815
 11
-139.350071808323
 21
668.831394879135
  0
LINE
  5
4D
100
AcDbEntity
  8
1
  6
CONTINUOUS
 62
           7
100
AcDbLine
 10
-139.350071808323
 20
668.831394879135
 11
-138.70696616835
 21
668.984629222003
  0
LINE
  5
4C
100
AcDbEntity
  8
1
  6
CONTINUOUS
 62
           7
100
AcDbLine
 10
-138.70696616835
 20
668.984629222003
 11
-138.282072234264
 21
669.097817261823
  0
LINE
  5
4B
100
AcDbEntity
  8
1
  6
CONTINUOUS
 62
           7
100
AcDbLine
 10
-138.282072234264
 20
669.097817261823
 11
-137.540246852556
 21
669.339303304689
  0
LINE
  5
4A
100
AcDbEntity
  8
1
  6
CONTINUOUS
 62
           7
100
AcDbLine
 10
-137.540246852556
 20
669.339303304689
 11
-136.967987140509
 21
669.564904836637
  0
LINE
  5
49
100
AcDbEntity
  8
1
  6
CONTINUOUS
 62
           7
100
AcDbLine
 10
-136.967987140509
 20
669.564904836637
 11
-136.706387332554
 21
669.727654045314
  0
LINE
  5
48
100
AcDbEntity
  8
1
  6
CONTINUOUS
 62
           7
100
AcDbLine
 10
-136.706387332554
 20
669.727654045314
 11
-136.573902060106
 21
669.866556423586
  0
LINE
  5
47
100
AcDbEntity
  8
1
  6
CONTINUOUS
 62
           7
100
AcDbLine
 10
-136.573902060106
 20
669.866556423586
 11
-136.385532969194
 21
670.134505165422
  0
LINE
  5
46
100
AcDbEntity
  8
1
  6
CONTINUOUS
 62
           7
100
AcDbLine
 10
-149.261055271345
 20
667.773810604625
 11
-148.876710149533
 21
667.594695033596
  0
LINE
  5
45
100
AcDbEntity
  8
1
  6
CONTINUOUS
 62
           7
100
AcDbLine
 10
-148.876710149533
 20
667.594695033596
 11
-148.447288677287
 21
667.489971482326
  0
LINE
  5
44
100
AcDbEntity
  8
1
  6
CONTINUOUS
 62
           7
100
AcDbLine
 10
-148.447288677287
 20
667.489971482326
 11
-147.880226445891
 21
667.409992211738
  0
LINE
  5
43
100
AcDbEntity
  8
1
  6
CONTINUOUS
 62
           7
100
AcDbLine
 10
-147.880226445891
 20
667.409992211738
 11
-147.245672331148
 21
667.361917112704
  0
LINE
  5
42
100
AcDbEntity
  8
1
  6
CONTINUOUS
 62
           7
100
AcDbLine
 10
-147.245672331148
 20
667.361917112704
 11
-146.324698004923
 21
667.337678289744
  0
LINE
  5
41
100
AcDbEntity
  8
1
  6
CONTINUOUS
 62
           7
100
AcDbLine
 10
-146.324698004923
 20
667.337678289744
 11
-145.041627101533
 21
667.366258350488
  0
LINE
  5
40
100
AcDbEntity
  8
1
  6
CONTINUOUS
 62
           7
100
AcDbLine
 10
-145.041627101533
 20
667.366258350488
 11
-143.690691941275
 21
667.454352994416
  0
LINE
  5
3F
100
AcDbEntity
  8
1
  6
CONTINUOUS
 62
           7
100
AcDbLine
 10
-143.690691941275
 20
667.454352994416
 11
-142.81285584748
 21
667.539079399281
  0
LINE
  5
3E
100
AcDbEntity
  8
1
  6
CONTINUOUS
 62
           7
100
AcDbLine
 10
-142.81285584748
 20
667.539079399281
 11
-141.649504905827
 21
667.683478538831
  0
LINE
  5
3D
100
AcDbEntity
  8
1
  6
CONTINUOUS
 62
           7
100
AcDbLine
 10
-141.649504905827
 20
667.683478538831
 11
-140.264190578725
 21
667.906229299746
  0
LINE
  5
3C
100
AcDbEntity
  8
1
  6
CONTINUOUS
 62
           7
100
AcDbLine
 10
-140.264190578725
 20
667.906229299746
 11
-139.213546161724
 21
668.119606608569
  0
LINE
  5
3B
100
AcDbEntity
  8
1
  6
CONTINUOUS
 62
           7
100
AcDbLine
 10
-139.213546161724
 20
668.119606608569
 11
-138.057785432217
 21
668.415008258763
  0
LINE
  5
3A
100
AcDbEntity
  8
1
  6
CONTINUOUS
 62
           7
100
AcDbLine
 10
-138.057785432217
 20
668.415008258763
 11
-137.334234488587
 21
668.662138924793
  0
LINE
  5
39
100
AcDbEntity
  8
1
  6
CONTINUOUS
 62
           7
100
AcDbLine
 10
-137.334234488587
 20
668.662138924793
 11
-136.58344384748
 21
669.042691294991
  0
LINE
  5
38
100
AcDbEntity
  8
1
  6
CONTINUOUS
 62
           7
100
AcDbLine
 10
-149.073800139699
 20
676.69657589726
 11
-148.755858205035
 21
676.450206217206
  0
LINE
  5
37
100
AcDbEntity
  8
1
  6
CONTINUOUS
 62
           7
100
AcDbLine
 10
-138.359888704276
 20
676.337533060881
 11
-138.566146024341
 21
678.197113177881
  0
ENDBLK
  5
500
100
AcDbEntity
  8
0
100
AcDbBlockEnd
  0
BLOCK
  5
29
100
AcDbEntity
  8
0
100
AcDbBlockBegin
  2
_14__S__2
 70
           0
 10
0.0
 20
0.0
 30
0.0
  3
_14__S__2
  1

  0
ARC
  5
595
100
AcDbEntity
  8
1
  6
CONTINUOUS
 62
           7
100
AcDbCircle
 10
-579.910681680849
 20
686.72524483349
 40
3.0
100
AcDbArc
 50
-171.818551596498
 51
-84.048893661939
  0
ARC
  5
594
100
AcDbEntity
  8
1
  6
CONTINUOUS
 62
           7
100
AcDbCircle
 10
-576.583094542684
 20
687.072117608371
 40
3.0
100
AcDbArc
 50
-84.048893661941
 51
3.720764272618
  0
ARC
  5
593
100
AcDbEntity
  8
1
  6
CONTINUOUS
 62
           7
100
AcDbCircle
 10
-579.697700848994
 20
685.243862740386
 40
3.0
100
AcDbArc
 50
-171.818551596496
 51
-84.048893661938
  0
ARC
  5
592
100
AcDbEntity
  8
1
  6
CONTINUOUS
 62
           7
100
AcDbCircle
 10
-576.485973337326
 20
685.578658130522
 40
3.0
100
AcDbArc
 50
-84.048893661941
 51
3.720764272622
  0
ARC
  5
591
100
AcDbEntity
  8
1
  6
CONTINUOUS
 62
           7
100
AcDbCircle
 10
-587.341246009359
 20
723.183004802251
 40
0.757321372536
100
AcDbArc
 50
-156.459348077852
 51
-156.087756904785
  0
ARC
  5
590
100
AcDbEntity
  8
1
  6
CONTINUOUS
 62
           7
100
AcDbCircle
 10
-587.255271395187
 20
723.221125488052
 40
0.851368280874
100
AcDbArc
 50
-156.087756904795
 51
-153.979722772836
  0
ARC
  5
58F
100
AcDbEntity
  8
1
  6
CONTINUOUS
 62
           7
100
AcDbCircle
 10
-587.285304156273
 20
723.206464372354
 40
0.817948001822
100
AcDbArc
 50
-153.979722772823
 51
-151.784029449192
  0
ARC
  5
58E
100
AcDbEntity
  8
1
  6
CONTINUOUS
 62
           7
100
AcDbCircle
 10
-587.193301854724
 20
723.255828596115
 40
0.922357053526
100
AcDbArc
 50
-151.784029449199
 51
-149.836462501458
  0
ARC
  5
58D
100
AcDbEntity
  8
1
  6
CONTINUOUS
 62
           7
100
AcDbCircle
 10
-587.210248743393
 20
723.245979704136
 40
0.902756091592
100
AcDbArc
 50
-149.836462501461
 51
-145.860431106348
  0
ARC
  5
58C
100
AcDbEntity
  8
1
  6
CONTINUOUS
 62
           7
100
AcDbCircle
 10
-587.088891266803
 20
723.328267178929
 40
1.049381006364
100
AcDbArc
 50
-145.860431106348
 51
-143.867085091142
  0
ARC
  5
58B
100
AcDbEntity
  8
1
  6
CONTINUOUS
 62
           7
100
AcDbCircle
 10
-587.162318144572
 20
723.274658739628
 40
0.958466919759
100
AcDbArc
 50
-143.867085091136
 51
-141.687749695274
  0
ARC
  5
58A
100
AcDbEntity
  8
1
  6
CONTINUOUS
 62
           7
100
AcDbCircle
 10
-587.002397272301
 20
723.401012162149
 40
1.162280248005
100
AcDbArc
 50
-141.687749695282
 51
-139.891917627102
  0
ARC
  5
589
100
AcDbEntity
  8
1
  6
CONTINUOUS
 62
           7
100
AcDbCircle
 10
-587.08480502781
 20
723.331598518238
 40
1.054533822872
100
AcDbArc
 50
-139.891917627103
 51
-137.913001838165
  0
ARC
  5
588
100
AcDbEntity
  8
1
  6
CONTINUOUS
 62
           7
100
AcDbCircle
 10
-586.896030099609
 20
723.502091958912
 40
1.308903606514
100
AcDbArc
 50
-137.913001838163
 51
-136.318488288082
  0
ARC
  5
587
100
AcDbEntity
  8
1
  6
CONTINUOUS
 62
           7
100
AcDbCircle
 10
-586.993619394605
 20
723.408893831921
 40
1.173960798731
100
AcDbArc
 50
-136.318488288084
 51
-134.540133831425
  0
ARC
  5
586
100
AcDbEntity
  8
1
  6
CONTINUOUS
 62
           7
100
AcDbCircle
 10
-586.76777712737
 20
723.638390811829
 40
1.495944639096
100
AcDbArc
 50
-134.540133831427
 51
-133.144110052713
  0
ARC
  5
585
100
AcDbEntity
  8
1
  6
CONTINUOUS
 62
           7
100
AcDbCircle
 10
-586.888369525039
 20
723.509721661189
 40
1.319597604242
100
AcDbArc
 50
-133.144110052706
 51
-131.561179969592
  0
ARC
  5
584
100
AcDbEntity
  8
1
  6
CONTINUOUS
 62
           7
100
AcDbCircle
 10
-586.613253152118
 20
723.820015885752
 40
1.734292099559
100
AcDbArc
 50
-131.561179969597
 51
-130.356813232894
  0
ARC
  5
583
100
AcDbEntity
  8
1
  6
CONTINUOUS
 62
           7
100
AcDbCircle
 10
-586.767445524122
 20
723.638563534659
 40
1.496173970679
100
AcDbArc
 50
-130.356813232892
 51
-128.961330691462
  0
ARC
  5
582
100
AcDbEntity
  8
1
  6
CONTINUOUS
 62
           7
100
AcDbCircle
 10
-586.472452693602
 20
724.003352464839
 40
1.965313324858
100
AcDbArc
 50
-128.961330691465
 51
-127.678168686941
  0
ARC
  5
581
100
AcDbEntity
  8
1
  6
CONTINUOUS
 62
           7
100
AcDbCircle
 10
-586.65673779943
 20
723.764727541775
 40
1.663812322974
100
AcDbArc
 50
-127.678168686939
 51
-126.163509719303
  0
ARC
  5
580
100
AcDbEntity
  8
1
  6
CONTINUOUS
 62
           7
100
AcDbCircle
 10
-586.355202129523
 20
724.177274819618
 40
2.174810382346
100
AcDbArc
 50
-126.163509719304
 51
-125.005189591192
  0
ARC
  5
57F
100
AcDbEntity
  8
1
  6
CONTINUOUS
 62
           7
100
AcDbCircle
 10
-586.562512102423
 20
723.881262562949
 40
1.813423220203
100
AcDbArc
 50
-125.005189591189
 51
-123.616227253578
  0
ARC
  5
57E
100
AcDbEntity
  8
1
  6
CONTINUOUS
 62
           7
100
AcDbCircle
 10
-586.21568870086
 20
724.402953134478
 40
2.439879542936
100
AcDbArc
 50
-123.616227253578
 51
-122.583890533568
  0
ARC
  5
57D
100
AcDbEntity
  8
1
  6
CONTINUOUS
 62
           7
100
AcDbCircle
 10
-586.455687163131
 20
724.027445430137
 40
1.994227999786
100
AcDbArc
 50
-122.583890533569
 51
-121.320722935815
  0
ARC
  5
57C
100
AcDbEntity
  8
1
  6
CONTINUOUS
 62
           7
100
AcDbCircle
 10
-586.048629944868
 20
724.696391781288
 40
2.777289172147
100
AcDbArc
 50
-121.320722935815
 51
-120.413606147699
  0
ARC
  5
57B
100
AcDbEntity
  8
1
  6
CONTINUOUS
 62
           7
100
AcDbCircle
 10
-586.334592786324
 20
724.209245004811
 40
2.212411549537
100
AcDbArc
 50
-120.413606147696
 51
-119.274782093454
  0
ARC
  5
57A
100
AcDbEntity
  8
1
  6
CONTINUOUS
 62
           7
100
AcDbCircle
 10
-585.84474173428
 20
725.083050250189
 40
3.214154859991
100
AcDbArc
 50
-119.274782093455
 51
-118.49090969633
  0
ARC
  5
579
100
AcDbEntity
  8
1
  6
CONTINUOUS
 62
           7
100
AcDbCircle
 10
-586.196193101046
 20
724.435512379823
 40
2.477389390686
100
AcDbArc
 50
-118.490909696334
 51
-117.474080675766
  0
ARC
  5
578
100
AcDbEntity
  8
1
  6
CONTINUOUS
 62
           7
100
AcDbCircle
 10
-585.674050063179
 20
725.439648632778
 40
3.609168064496
100
AcDbArc
 50
-117.474080675764
 51
-116.642182924247
  0
ARC
  5
577
100
AcDbEntity
  8
1
  6
CONTINUOUS
 62
           7
100
AcDbCircle
 10
-586.062428828481
 20
724.665498267392
 40
2.743057878917
100
AcDbArc
 50
-116.642182924247
 51
-115.547909712639
  0
ARC
  5
576
100
AcDbEntity
  8
1
  6
CONTINUOUS
 62
           7
100
AcDbCircle
 10
-585.530451928737
 20
725.778415154976
 40
3.97658267418
100
AcDbArc
 50
-115.54790971264
 51
-114.793192551516
  0
ARC
  5
575
100
AcDbEntity
  8
1
  6
CONTINUOUS
 62
           7
100
AcDbCircle
 10
-585.960460347328
 20
724.847501212279
 40
2.951152028663
100
AcDbArc
 50
-114.793192551515
 51
-113.77627898231
  0
ARC
  5
574
100
AcDbEntity
  8
1
  6
CONTINUOUS
 62
           7
100
AcDbCircle
 10
-585.363952897103
 20
726.201482572789
 40
4.430708267128
100
AcDbArc
 50
-113.77627898231
 51
-113.098939534457
  0
ARC
  5
573
100
AcDbEntity
  8
1
  6
CONTINUOUS
 62
           7
100
AcDbCircle
 10
-585.849135055835
 20
725.063930578773
 40
3.194008519315
100
AcDbArc
 50
-113.098939534458
 51
-112.159285213169
  0
ARC
  5
572
100
AcDbEntity
  8
1
  6
CONTINUOUS
 62
           7
100
AcDbCircle
 10
-585.168034424938
 20
726.736312824181
 40
4.999766101097
100
AcDbArc
 50
-112.159285213168
 51
-111.558973490921
  0
ARC
  5
571
100
AcDbEntity
  8
1
  6
CONTINUOUS
 62
           7
100
AcDbCircle
 10
-585.72713125059
 20
725.321235886585
 40
3.478243179887
100
AcDbArc
 50
-111.558973490922
 51
-110.696024658952
  0
ARC
  5
570
100
AcDbEntity
  8
1
  6
CONTINUOUS
 62
           7
100
AcDbCircle
 10
-584.932016505188
 20
727.425887619147
 40
5.728080145921
100
AcDbArc
 50
-110.696024658952
 51
-110.172026551956
  0
ARC
  5
56F
100
AcDbEntity
  8
1
  6
CONTINUOUS
 62
           7
100
AcDbCircle
 10
-585.592344014088
 20
725.628462490276
 40
3.813199075747
100
AcDbArc
 50
-110.172026551956
 51
-109.384949576105
  0
ARC
  5
56E
100
AcDbEntity
  8
1
  6
CONTINUOUS
 62
           7
100
AcDbCircle
 10
-584.765591356279
 20
727.978123737538
 40
6.304067987208
100
AcDbArc
 50
-109.384949576105
 51
-108.832719157204
  0
ARC
  5
56D
100
AcDbEntity
  8
1
  6
CONTINUOUS
 62
           7
100
AcDbCircle
 10
-585.453940667781
 20
725.959889532313
 40
4.171676352965
100
AcDbArc
 50
-108.832719157204
 51
-107.998311490374
  0
ARC
  5
56C
100
AcDbEntity
  8
1
  6
CONTINUOUS
 62
           7
100
AcDbCircle
 10
-584.614491464875
 20
728.543707613999
 40
6.888437447267
100
AcDbArc
 50
-107.998311490374
 51
-107.49302661167
  0
ARC
  5
56B
100
AcDbEntity
  8
1
  6
CONTINUOUS
 62
           7
100
AcDbCircle
 10
-585.356439448038
 20
726.189550216479
 40
4.420129552773
100
AcDbArc
 50
-107.49302661167
 51
-106.705594041385
  0
ARC
  5
56A
100
AcDbEntity
  8
1
  6
CONTINUOUS
 62
           7
100
AcDbCircle
 10
-584.444099435831
 20
729.229459486759
 40
7.593993549451
100
AcDbArc
 50
-106.705594041385
 51
-106.247264354987
  0
ARC
  5
569
100
AcDbEntity
  8
1
  6
CONTINUOUS
 62
           7
100
AcDbCircle
 10
-585.253751814224
 20
726.45117425146
 40
4.700136983807
100
AcDbArc
 50
-106.247264354987
 51
-105.506724193274
  0
ARC
  5
568
100
AcDbEntity
  8
1
  6
CONTINUOUS
 62
           7
100
AcDbCircle
 10
-584.24912668362
 20
730.072085228647
 40
8.45783148413
100
AcDbArc
 50
-105.506724193275
 51
-105.095187601027
  0
ARC
  5
567
100
AcDbEntity
  8
1
  6
CONTINUOUS
 62
           7
100
AcDbCircle
 10
-585.145352543139
 20
726.749414940656
 40
5.016413370333
100
AcDbArc
 50
-105.095187601028
 51
-104.401310781925
  0
ARC
  5
566
100
AcDbEntity
  8
1
  6
CONTINUOUS
 62
           7
100
AcDbCircle
 10
-584.021390318317
 20
731.126543061486
 40
9.535544002323
100
AcDbArc
 50
-104.401310781925
 51
-104.036283157701
  0
ARC
  5
565
100
AcDbEntity
  8
1
  6
CONTINUOUS
 62
           7
100
AcDbCircle
 10
-585.03044226866
 20
727.090347142873
 40
5.375127757291
100
AcDbArc
 50
-104.036283157701
 51
-103.38874184161
  0
ARC
  5
564
100
AcDbEntity
  8
1
  6
CONTINUOUS
 62
           7
100
AcDbCircle
 10
-584.285261119586
 20
730.221018762959
 40
8.593263823053
100
AcDbArc
 50
-103.38874184161
 51
-102.475261010517
  0
ARC
  5
563
100
AcDbEntity
  8
1
  6
CONTINUOUS
 62
           7
100
AcDbCircle
 10
-584.664428944673
 20
728.507201650515
 40
6.838003917942
100
AcDbArc
 50
-102.475261010518
 51
-101.327359198149
  0
ARC
  5
562
100
AcDbEntity
  8
1
  6
CONTINUOUS
 62
           7
100
AcDbCircle
 10
-583.629462258325
 20
733.673862996856
 40
12.107306102256
100
AcDbArc
 50
-101.327359198149
 51
-101.003202954413
  0
ARC
  5
561
100
AcDbEntity
  8
1
  6
CONTINUOUS
 62
           7
100
AcDbCircle
 10
-584.727848363709
 20
728.02484235902
 40
6.352491926004
100
AcDbArc
 50
-101.003202954414
 51
-100.385379184592
  0
ARC
  5
560
100
AcDbEntity
  8
1
  6
CONTINUOUS
 62
           7
100
AcDbCircle
 10
-583.472036148285
 20
734.877072633311
 40
13.31884850978
100
AcDbArc
 50
-100.385379184592
 51
-100.090702314889
  0
ARC
  5
55F
100
AcDbEntity
  8
1
  6
CONTINUOUS
 62
           7
100
AcDbCircle
 10
-584.636929000525
 20
728.331249164328
 40
6.670180955729
100
AcDbArc
 50
-100.090702314889
 51
-99.502292627048
  0
ARC
  5
55E
100
AcDbEntity
  8
1
  6
CONTINUOUS
 62
           7
100
AcDbCircle
 10
-583.296189268059
 20
736.341224937371
 40
14.791590618771
100
AcDbArc
 50
-99.502292627048
 51
-99.236954665611
  0
ARC
  5
55D
100
AcDbEntity
  8
1
  6
CONTINUOUS
 62
           7
100
AcDbCircle
 10
-584.543829176498
 20
728.669419107796
 40
7.018997098727
100
AcDbArc
 50
-99.236954665611
 51
-98.677800588364
  0
ARC
  5
55C
100
AcDbEntity
  8
1
  6
CONTINUOUS
 62
           7
100
AcDbCircle
 10
-583.756216736712
 20
733.829860932751
 40
12.239197591433
100
AcDbArc
 50
-98.677800588364
 51
-97.973166450071
  0
ARC
  5
55B
100
AcDbEntity
  8
1
  6
CONTINUOUS
 62
           7
100
AcDbCircle
 10
-584.217598256132
 20
730.535767626125
 40
8.912949912859
100
AcDbArc
 50
-97.973166450071
 51
-97.005593335846
  0
ARC
  5
55A
100
AcDbEntity
  8
1
  6
CONTINUOUS
 62
           7
100
AcDbCircle
 10
-583.632957335779
 20
735.29344606367
 40
13.706415164723
100
AcDbArc
 50
-97.005593335846
 51
-96.376405791386
  0
ARC
  5
559
100
AcDbEntity
  8
1
  6
CONTINUOUS
 62
           7
100
AcDbCircle
 10
-584.081836299447
 20
731.276668504441
 40
9.664634086492
100
AcDbArc
 50
-96.376405791386
 51
-95.484074582991
  0
ARC
  5
558
100
AcDbEntity
  8
1
  6
CONTINUOUS
 62
           7
100
AcDbCircle
 10
-583.518419360362
 20
737.145073662095
 40
15.560023619138
100
AcDbArc
 50
-95.484074582991
 51
-94.929836863553
  0
ARC
  5
557
100
AcDbEntity
  8
1
  6
CONTINUOUS
 62
           7
100
AcDbCircle
 10
-583.943876730974
 20
732.212511612822
 40
10.609146692356
100
AcDbArc
 50
-94.929836863553
 51
-94.057470658284
  0
ARC
  5
556
100
AcDbEntity
  8
1
  6
CONTINUOUS
 62
           7
100
AcDbCircle
 10
-583.508580007278
 20
738.349083210647
 40
16.761137769471
100
AcDbArc
 50
-94.057470658284
 51
-93.505309164088
  0
ARC
  5
555
100
AcDbEntity
  8
1
  6
CONTINUOUS
 62
           7
100
AcDbCircle
 10
-583.847149083545
 20
732.821932843022
 40
11.223627480023
100
AcDbArc
 50
-93.505309164088
 51
-92.680716164905
  0
ARC
  5
554
100
AcDbEntity
  8
1
  6
CONTINUOUS
 62
           7
100
AcDbCircle
 10
-583.514156581955
 20
739.933891009009
 40
18.343376981294
100
AcDbArc
 50
-92.680716164905
 51
-92.176177669504
  0
ARC
  5
553
100
AcDbEntity
  8
1
  6
CONTINUOUS
 62
           7
100
AcDbCircle
 10
-583.758497686667
 20
733.503817925858
 40
11.908663123623
100
AcDbArc
 50
-92.176177669504
 51
-91.399016388313
  0
ARC
  5
552
100
AcDbEntity
  8
1
  6
CONTINUOUS
 62
           7
100
AcDbCircle
 10
-583.60960552609
 20
739.600384772483
 40
18.007047843436
100
AcDbArc
 50
-91.399016388313
 51
-90.589249199574
  0
ARC
  5
551
100
AcDbEntity
  8
1
  6
CONTINUOUS
 62
           7
100
AcDbCircle
 10
-583.65481741932
 20
735.2043510766
 40
13.610781658293
100
AcDbArc
 50
-90.589249199574
 51
-89.517927206231
  0
ARC
  5
550
100
AcDbEntity
  8
1
  6
CONTINUOUS
 62
           7
100
AcDbCircle
 10
-583.704716635517
 20
741.134880783502
 40
19.541521286386
100
AcDbArc
 50
-89.517927206231
 51
-88.771747067626
  0
ARC
  5
54F
100
AcDbEntity
  8
1
  6
CONTINUOUS
 62
           7
100
AcDbCircle
 10
-583.608037186929
 20
736.625650094656
 40
15.031254296394
100
AcDbArc
 50
-88.771747067626
 51
-87.449684793017
  0
ARC
  5
54E
100
AcDbEntity
  8
1
  6
CONTINUOUS
 62
           7
100
AcDbCircle
 10
-583.78340162095
 20
740.562812592566
 40
18.972320296814
100
AcDbArc
 50
-87.449684793017
 51
-85.867217562342
  0
ARC
  5
54D
100
AcDbEntity
  8
1
  6
CONTINUOUS
 62
           7
100
AcDbCircle
 10
-583.66426498734
 20
738.913999943293
 40
17.319209081599
100
AcDbArc
 50
-85.867217562342
 51
-77.801874869139
  0
ARC
  5
54C
100
AcDbEntity
  8
1
  6
CONTINUOUS
 62
           7
100
AcDbCircle
 10
-582.664414028181
 20
734.288773366032
 40
12.587145807346
100
AcDbArc
 50
-77.801874869139
 51
-76.641739648473
  0
ARC
  5
54B
100
AcDbEntity
  8
1
  6
CONTINUOUS
 62
           7
100
AcDbCircle
 10
-584.845407189189
 20
743.473298612408
 40
22.027073517328
100
AcDbArc
 50
-76.641739648473
 51
-76.220643279893
  0
ARC
  5
54A
100
AcDbEntity
  8
1
  6
CONTINUOUS
 62
           7
100
AcDbCircle
 10
-582.180365784066
 20
732.606293114111
 40
10.838049690781
100
AcDbArc
 50
-76.220643279893
 51
-75.364805318837
  0
ARC
  5
549
100
AcDbEntity
  8
1
  6
CONTINUOUS
 62
           7
100
AcDbCircle
 10
-584.453175140538
 20
741.309821919157
 40
19.833441623939
100
AcDbArc
 50
-75.364805318837
 51
-74.89713612246
  0
ARC
  5
548
100
AcDbEntity
  8
1
  6
CONTINUOUS
 62
           7
100
AcDbCircle
 10
-581.963078751387
 20
732.082948158866
 40
10.276466191533
100
AcDbArc
 50
-74.897136122459
 51
-73.994536539206
  0
ARC
  5
547
100
AcDbEntity
  8
1
  6
CONTINUOUS
 62
           7
100
AcDbCircle
 10
-584.099745558153
 20
739.531710060725
 40
18.025620914063
100
AcDbArc
 50
-73.994536539206
 51
-73.479956872586
  0
ARC
  5
546
100
AcDbEntity
  8
1
  6
CONTINUOUS
 62
           7
100
AcDbCircle
 10
-581.693291980897
 20
731.418082689125
 40
9.562644608728
100
AcDbArc
 50
-73.479956872586
 51
-72.575344642056
  0
ARC
  5
545
100
AcDbEntity
  8
1
  6
CONTINUOUS
 62
           7
100
AcDbCircle
 10
-583.67833461025
 20
737.742822446806
 40
16.191575687171
100
AcDbArc
 50
-72.575344642056
 51
-72.041086886833
  0
ARC
  5
544
100
AcDbEntity
  8
1
  6
CONTINUOUS
 62
           7
100
AcDbCircle
 10
-581.41214052712
 20
730.751138405138
 40
8.841794645471
100
AcDbArc
 50
-72.041086886833
 51
-71.062728205841
  0
ARC
  5
543
100
AcDbEntity
  8
1
  6
CONTINUOUS
 62
           7
100
AcDbCircle
 10
-583.15779092645
 20
735.838963548578
 40
14.220759230491
100
AcDbArc
 50
-71.062728205841
 51
-70.454437852638
  0
ARC
  5
542
100
AcDbEntity
  8
1
  6
CONTINUOUS
 62
           7
100
AcDbCircle
 10
-581.149688151825
 20
730.182555156865
 40
8.218473611888
100
AcDbArc
 50
-70.454437852638
 51
-69.401845386418
  0
ARC
  5
541
100
AcDbEntity
  8
1
  6
CONTINUOUS
 62
           7
100
AcDbCircle
 10
-585.102288029281
 20
740.699305179135
 40
19.453467017413
100
AcDbArc
 50
-69.401845386418
 51
-69.199290725654
  0
ARC
  5
540
100
AcDbEntity
  8
1
  6
CONTINUOUS
 62
           7
100
AcDbCircle
 10
-580.464063238082
 20
728.489547552362
 40
6.392406167763
100
AcDbArc
 50
-69.199290725655
 51
-68.582858023126
  0
ARC
  5
53F
100
AcDbEntity
  8
1
  6
CONTINUOUS
 62
           7
100
AcDbCircle
 10
-584.351377283165
 20
738.400074883719
 40
17.03805140282
100
AcDbArc
 50
-68.582858023126
 51
-68.351582359518
  0
ARC
  5
53E
100
AcDbEntity
  8
1
  6
CONTINUOUS
 62
           7
100
AcDbCircle
 10
-580.713906214321
 20
729.235505883822
 40
7.17800471274
100
AcDbArc
 50
-68.351582359518
 51
-67.253656420786
  0
ARC
  5
53D
100
AcDbEntity
  8
1
  6
CONTINUOUS
 62
           7
100
AcDbCircle
 10
-581.891875363624
 20
732.045146221478
 40
10.22459135088
100
AcDbArc
 50
-67.253656420785
 51
-66.482899120353
  0
ARC
  5
53C
100
AcDbEntity
  8
1
  6
CONTINUOUS
 62
           7
100
AcDbCircle
 10
-580.402420619552
 20
728.622428824817
 40
6.491835021832
100
AcDbArc
 50
-66.482899120353
 51
-65.268927660396
  0
ARC
  5
53B
100
AcDbEntity
  8
1
  6
CONTINUOUS
 62
           7
100
AcDbCircle
 10
-581.446795676785
 20
730.889823239484
 40
8.988191705448
100
AcDbArc
 50
-65.268927660395
 51
-64.441313534304
  0
ARC
  5
53A
100
AcDbEntity
  8
1
  6
CONTINUOUS
 62
           7
100
AcDbCircle
 10
-579.673099553073
 20
727.180973234911
 40
4.877040249263
100
AcDbArc
 50
-64.441313534304
 51
-63.724027748605
  0
ARC
  5
539
100
AcDbEntity
  8
1
  6
CONTINUOUS
 62
           7
100
AcDbCircle
 10
-582.177584185244
 20
732.253767454498
 40
10.534396917095
100
AcDbArc
 50
-63.724027748605
 51
-63.391950483385
  0
ARC
  5
538
100
AcDbEntity
  8
1
  6
CONTINUOUS
 62
           7
100
AcDbCircle
 10
-579.51255898978
 20
726.933702087329
 40
4.584148619469
100
AcDbArc
 50
-63.391950483385
 51
-62.628841359449
  0
ARC
  5
537
100
AcDbEntity
  8
1
  6
CONTINUOUS
 62
           7
100
AcDbCircle
 10
-581.659109480909
 20
731.079924751764
 40
9.253071556724
100
AcDbArc
 50
-62.62884135945
 51
-62.25079303617
  0
ARC
  5
536
100
AcDbEntity
  8
1
  6
CONTINUOUS
 62
           7
100
AcDbCircle
 10
-579.363586498454
 20
726.716706656167
 40
4.322848649723
100
AcDbArc
 50
-62.25079303617
 51
-61.441589123551
  0
ARC
  5
535
100
AcDbEntity
  8
1
  6
CONTINUOUS
 62
           7
100
AcDbCircle
 10
-581.238814504496
 20
730.162066214572
 40
8.245473097887
100
AcDbArc
 50
-61.44158912355
 51
-61.017351863302
  0
ARC
  5
534
100
AcDbEntity
  8
1
  6
CONTINUOUS
 62
           7
100
AcDbCircle
 10
-579.224938795133
 20
726.526341984581
 40
4.089250528136
100
AcDbArc
 50
-61.017351863301
 51
-60.161900297411
  0
ARC
  5
533
100
AcDbEntity
  8
1
  6
CONTINUOUS
 62
           7
100
AcDbCircle
 10
-580.200297375924
 20
728.226791109146
 40
6.049569784369
100
AcDbArc
 50
-60.161900297411
 51
-59.005260845799
  0
ARC
  5
532
100
AcDbEntity
  8
1
  6
CONTINUOUS
 62
           7
100
AcDbCircle
 10
-578.90357082241
 20
726.068226791821
 40
3.531455476674
100
AcDbArc
 50
-59.0052608458
 51
-58.15018414076
  0
ARC
  5
531
100
AcDbEntity
  8
1
  6
CONTINUOUS
 62
           7
100
AcDbCircle
 10
-580.642130311478
 20
728.866800217589
 40
6.826087825882
100
AcDbArc
 50
-58.150184140759
 51
-57.70778093397
  0
ARC
  5
530
100
AcDbEntity
  8
1
  6
CONTINUOUS
 62
           7
100
AcDbCircle
 10
-578.73187778633
 20
725.844170788911
 40
3.250426576134
100
AcDbArc
 50
-57.70778093397
 51
-56.778692255717
  0
ARC
  5
52F
100
AcDbEntity
  8
1
  6
CONTINUOUS
 62
           7
100
AcDbCircle
 10
-580.15210919629
 20
728.012751282277
 40
5.842684012047
100
AcDbArc
 50
-56.778692255718
 51
-56.26184157693
  0
ARC
  5
52E
100
AcDbEntity
  8
1
  6
CONTINUOUS
 62
           7
100
AcDbCircle
 10
-578.577637650077
 20
725.655333516423
 40
3.00783319188
100
AcDbArc
 50
-56.261841576929
 51
-55.25791647919
  0
ARC
  5
52D
100
AcDbEntity
  8
1
  6
CONTINUOUS
 62
           7
100
AcDbCircle
 10
-579.7701062168
 20
727.37477707413
 40
5.100311968538
100
AcDbArc
 50
-55.257916479192
 51
-54.665905552755
  0
ARC
  5
52C
100
AcDbEntity
  8
1
  6
CONTINUOUS
 62
           7
100
AcDbCircle
 10
-578.438280975827
 20
725.496144215812
 40
2.79748329735
100
AcDbArc
 50
-54.665905552755
 51
-53.586581312506
  0
ARC
  5
52B
100
AcDbEntity
  8
1
  6
CONTINUOUS
 62
           7
100
AcDbCircle
 10
-579.462709160146
 20
726.884963707116
 40
4.52325057142
100
AcDbArc
 50
-53.586581312507
 51
-52.919038284951
  0
ARC
  5
52A
100
AcDbEntity
  8
1
  6
CONTINUOUS
 62
           7
100
AcDbCircle
 10
-578.312095039812
 20
725.362527912734
 40
2.614920515605
100
AcDbArc
 50
-52.919038284952
 51
-51.764177004883
  0
ARC
  5
529
100
AcDbEntity
  8
1
  6
CONTINUOUS
 62
           7
100
AcDbCircle
 10
-579.210009097472
 20
726.502106320555
 40
4.065743937844
100
AcDbArc
 50
-51.764177004882
 51
-51.021243024228
  0
ARC
  5
528
100
AcDbEntity
  8
1
  6
CONTINUOUS
 62
           7
100
AcDbCircle
 10
-578.131197418479
 20
725.168874442672
 40
2.350709862692
100
AcDbArc
 50
-51.02124302423
 51
-49.942195806315
  0
ARC
  5
527
100
AcDbEntity
  8
1
  6
CONTINUOUS
 62
           7
100
AcDbCircle
 10
-578.959806275069
 20
726.154351195261
 40
3.638249014373
100
AcDbArc
 50
-49.942195806316
 51
-49.244913780467
  0
ARC
  5
526
100
AcDbEntity
  8
1
  6
CONTINUOUS
 62
           7
100
AcDbCircle
 10
-577.964442316866
 20
724.999381806864
 40
2.113551110713
100
AcDbArc
 50
-49.244913780464
 51
-48.044587679087
  0
ARC
  5
525
100
AcDbEntity
  8
1
  6
CONTINUOUS
 62
           7
100
AcDbCircle
 10
-578.620408701795
 20
725.729047393588
 40
3.094725797813
100
AcDbArc
 50
-48.044587679086
 51
-47.22488736213
  0
ARC
  5
524
100
AcDbEntity
  8
1
  6
CONTINUOUS
 62
           7
100
AcDbCircle
 10
-577.820047387724
 20
724.863982368108
 40
1.91620310759
100
AcDbArc
 50
-47.224887362129
 51
-45.901157165283
  0
ARC
  5
523
100
AcDbEntity
  8
1
  6
CONTINUOUS
 62
           7
100
AcDbCircle
 10
-578.356575505365
 20
725.417658811136
 40
2.687189504736
100
AcDbArc
 50
-45.901157165282
 51
-44.957291216441
  0
ARC
  5
522
100
AcDbEntity
  8
1
  6
CONTINUOUS
 62
           7
100
AcDbCircle
 10
-577.694291785891
 20
724.756361700765
 40
1.751276264492
100
AcDbArc
 50
-44.957291216444
 51
-43.508934682404
  0
ARC
  5
521
100
AcDbEntity
  8
1
  6
CONTINUOUS
 62
           7
100
AcDbCircle
 10
-578.146044168135
 20
725.185192609445
 40
2.374153590377
100
AcDbArc
 50
-43.508934682404
 51
-42.440364404437
  0
ARC
  5
520
100
AcDbEntity
  8
1
  6
CONTINUOUS
 62
           7
100
AcDbCircle
 10
-577.58497947939
 20
724.672144842314
 40
1.613882851551
100
AcDbArc
 50
-42.440364404435
 51
-40.867694471692
  0
ARC
  5
51F
100
AcDbEntity
  8
1
  6
CONTINUOUS
 62
           7
100
AcDbCircle
 10
-577.976013291632
 20
725.010483227887
 40
2.130971147173
100
AcDbArc
 50
-40.867694471692
 51
-39.675759664669
  0
ARC
  5
51E
100
AcDbEntity
  8
1
  6
CONTINUOUS
 62
           7
100
AcDbCircle
 10
-577.448957552699
 20
724.573289667309
 40
1.446189458345
100
AcDbArc
 50
-39.675759664667
 51
-38.221626055281
  0
ARC
  5
51D
100
AcDbEntity
  8
1
  6
CONTINUOUS
 62
           7
100
AcDbCircle
 10
-577.800758702
 20
724.850344950379
 40
1.893988161477
100
AcDbArc
 50
-38.221626055285
 51
-37.110819364502
  0
ARC
  5
51C
100
AcDbEntity
  8
1
  6
CONTINUOUS
 62
           7
100
AcDbCircle
 10
-577.316162913683
 20
724.483704164902
 40
1.286321687472
100
AcDbArc
 50
-37.110819364497
 51
-35.475165510466
  0
ARC
  5
51B
100
AcDbEntity
  8
1
  6
CONTINUOUS
 62
           7
100
AcDbCircle
 10
-577.589649824598
 20
724.678601684535
 40
1.622149222973
100
AcDbArc
 50
-35.475165510469
 51
-34.17846891317
  0
ARC
  5
51A
100
AcDbEntity
  8
1
  6
CONTINUOUS
 62
           7
100
AcDbCircle
 10
-577.200518233994
 20
724.414361842799
 40
1.15178118753
100
AcDbArc
 50
-34.178468913169
 51
-32.352923033298
  0
ARC
  5
519
100
AcDbEntity
  8
1
  6
CONTINUOUS
 62
           7
100
AcDbCircle
 10
-577.419119926371
 20
724.552838874948
 40
1.410552492629
100
AcDbArc
 50
-32.352923033298
 51
-30.862939158453
  0
ARC
  5
518
100
AcDbEntity
  8
1
  6
CONTINUOUS
 62
           7
100
AcDbCircle
 10
-577.100573748749
 20
724.362472661933
 40
1.039458215747
100
AcDbArc
 50
-30.862939158452
 51
-28.841588453256
  0
ARC
  5
517
100
AcDbEntity
  8
1
  6
CONTINUOUS
 62
           7
100
AcDbCircle
 10
-577.280904676921
 20
724.461780951063
 40
1.245325600112
100
AcDbArc
 50
-28.841588453259
 51
-27.154459989817
  0
ARC
  5
516
100
AcDbEntity
  8
1
  6
CONTINUOUS
 62
           7
100
AcDbCircle
 10
-577.01594392044
 20
724.325875730786
 40
0.947543076492
100
AcDbArc
 50
-27.154459989809
 51
-24.936126303864
  0
ARC
  5
515
100
AcDbEntity
  8
1
  6
CONTINUOUS
 62
           7
100
AcDbCircle
 10
-577.170475383236
 20
724.397725312097
 40
1.117961195624
100
AcDbArc
 50
-24.936126303866
 51
-23.05401492287
  0
ARC
  5
514
100
AcDbEntity
  8
1
  6
CONTINUOUS
 62
           7
100
AcDbCircle
 10
-576.935112780327
 20
724.297557845199
 40
0.862170116278
100
AcDbArc
 50
-23.054014922872
 51
-20.967822317379
  0
ARC
  5
513
100
AcDbEntity
  8
1
  6
CONTINUOUS
 62
           7
100
AcDbCircle
 10
-577.109117784847
 20
724.364240010619
 40
1.04851456289
100
AcDbArc
 50
-20.967822317381
 51
-19.250891150038
  0
ARC
  5
512
100
AcDbEntity
  8
1
  6
CONTINUOUS
 62
           7
100
AcDbCircle
 10
-576.879468706906
 20
724.284038954939
 40
0.805263852035
100
AcDbArc
 50
-19.250891150047
 51
-17.014500343632
  0
ARC
  5
511
100
AcDbEntity
  8
1
  6
CONTINUOUS
 62
           7
100
AcDbCircle
 10
-577.026624580497
 20
724.329069746686
 40
0.959155448095
100
AcDbArc
 50
-17.014500343617
 51
-15.137098329007
  0
ARC
  5
510
100
AcDbEntity
  8
1
  6
CONTINUOUS
 62
           7
100
AcDbCircle
 10
-576.822896563021
 20
724.27395816904
 40
0.748104764382
100
AcDbArc
 50
-15.137098329014
 51
-12.730777444394
  0
ARC
  5
50F
100
AcDbEntity
  8
1
  6
CONTINUOUS
 62
           7
100
AcDbCircle
 10
-576.946987055112
 20
724.301993220431
 40
0.875322743984
100
AcDbArc
 50
-12.730777444394
 51
-11.608797233653
  0
LINE
  5
50E
100
AcDbEntity
  8
1
  6
CONTINUOUS
 62
           7
100
AcDbLine
 10
-579.599642446758
 20
683.741412633976
 11
-576.272055308593
 21
684.088285408857
  0
LINE
  5
50D
100
AcDbEntity
  8
1
  6
CONTINUOUS
 62
           7
100
AcDbLine
 10
-573.492296839582
 20
685.773339991146
 11
-575.806295149532
 21
721.35632822713
  0
LINE
  5
50C
100
AcDbEntity
  8
1
  6
CONTINUOUS
 62
           7
100
AcDbLine
 10
-579.386661614903
 20
682.260030540872
 11
-576.174934103235
 21
682.594825931008
  0
LINE
  5
50B
100
AcDbEntity
  8
1
  6
CONTINUOUS
 62
           7
100
AcDbLine
 10
-587.741623947588
 20
720.112171290767
 11
-582.66716793001
 21
684.81693739005
  0
LINE
  5
50A
100
AcDbEntity
  8
1
  6
CONTINUOUS
 62
           7
100
AcDbLine
 10
-575.122723650452
 20
724.443840171341
 11
-575.806295149532
 21
721.35632822713
  0
LINE
  5
509
100
AcDbEntity
  8
1
  6
CONTINUOUS
 62
           7
100
AcDbLine
 10
-589.04727391485
 20
722.992323745584
 11
-587.741623947588
 21
720.112171290767
  0
LINE
  5
508
100
AcDbEntity
  8
1
  6
CONTINUOUS
 62
           7
100
AcDbLine
 10
-591.067813120649
 20
753.949672167531
 11
-589.755917765066
 21
741.364521564828
  0
LINE
  5
507
100
AcDbEntity
  8
1
  6
CONTINUOUS
 62
           7
100
AcDbLine
 10
-579.530328615862
 20
755.152357206015
 11
-578.218433260279
 21
742.567206603312
  0
LINE
  5
506
100
AcDbEntity
  8
1
  6
CONTINUOUS
 62
           7
100
AcDbLine
 10
-578.336795736057
 20
755.276772899651
 11
-579.530328615862
 21
755.152357206015
  0
LINE
  5
505
100
AcDbEntity
  8
1
  6
CONTINUOUS
 62
           7
100
AcDbLine
 10
-592.261346000455
 20
753.825256473894
 11
-590.860143423685
 21
740.383372272922
  0
LINE
  5
504
100
AcDbEntity
  8
1
  6
CONTINUOUS
 62
           7
100
AcDbLine
 10
-592.261346000455
 20
753.825256473894
 11
-591.067813120649
 21
753.949672167531
  0
LINE
  5
503
100
AcDbEntity
  8
1
  6
CONTINUOUS
 62
           7
100
AcDbLine
 10
-576.935593159287
 20
741.834888698679
 11
-578.336795736057
 21
755.276772899651
  0
LINE
  5
502
100
AcDbEntity
  8
1
  6
CONTINUOUS
 62
           7
100
AcDbLine
 10
-575.176089546161
 20
724.955784841087
 11
-575.122723650452
 21
724.443840171341
  0
LINE
  5
501
100
AcDbEntity
  8
1
  6
CONTINUOUS
 62
           7
100
AcDbLine
 10
-589.10063981056
 20
723.504268415329
 11
-589.04727391485
 21
722.992323745584
  0
ENDBLK
  5
596
100
AcDbEntity
  8
0
100
AcDbBlockEnd
  0
BLOCK
  5
2B
100
AcDbEntity
  8
0
100
AcDbBlockBegin
  2
13058600
 70
           0
 10
0.0
 20
0.0
 30
0.0
  3
13058600
  1

  0
INSERT
  5
2C
100
AcDbEntity
  8
0
100
AcDbBlockReference
  2
_14__S__2
 10
473.310776229023
 20
-1168.224257850164
 50
-5.951106338061
  0
ENDBLK
  5
597
100
AcDbEntity
  8
0
100
AcDbBlockEnd
  0
BLOCK
  5
2E
100
AcDbEntity
  8
0
100
AcDbBlockBegin
  2
LPH_50_S11B_101
 70
           0
 10
0.0
 20
0.0
 30
0.0
  3
LPH_50_S11B_101
  1

  0
INSERT
  5
2F
100
AcDbEntity
  8
0
100
AcDbBlockReference
  2
13058600
 10
0.0
 20
0.0
  0
ENDBLK
  5
598
100
AcDbEntity
  8
0
100
AcDbBlockEnd
  0
BLOCK
  5
31
100
AcDbEntity
  8
0
100
AcDbBlockBegin
  2
LPH_50_S11B_101A
 70
           0
 10
0.0
 20
0.0
 30
0.0
  3
LPH_50_S11B_101A
  1

  0
INSERT
  5
32
100
AcDbEntity
  8
0
100
AcDbBlockReference
  2
LPH_50_S11B_101
 10
0.0
 20
0.0
  0
ENDBLK
  5
599
100
AcDbEntity
  8
0
100
AcDbBlockEnd
  0
ENDSEC
  0
SECTION
  2
ENTITIES
  0
INSERT
  5
35
100
AcDbEntity
  8
0
100
AcDbBlockReference
  2
_14__S__1
 10
37.358705958168
 20
-1167.771791058645
 50
-6.329152807968
  0
INSERT
  5
36
100
AcDbEntity
  8
0
100
AcDbBlockReference
  2
LPH_50_S11B_101A
 10
0.0
 20
0.0
  0
ENDSEC
  0
SECTION
  2
OBJECTS
  0
DICTIONARY
  5
19
100
AcDbDictionary
  3
ACAD_GROUP
350
1A
  3
ACAD_MLINESTYLE
350
1B
  0
DICTIONARY
  5
1A
102
{ACAD_REACTORS
330
19
102
}
100
AcDbDictionary
  0
DICTIONARY
  5
1B
102
{ACAD_REACTORS
330
19
102
}
100
AcDbDictionary
  3
STANDARD
350
1C
  0
MLINESTYLE
  5
1C
102
{ACAD_REACTORS
330
1B
102
}
100
AcDbMlineStyle
  2
STANDARD
 70
           0
  3

 62
           0
 51
90.0
 52
90.0
 71
           2
 49
0.5
 62
         256
  6
BYLAYER
 49
-0.5
 62
         256
  6
BYLAYER
  0
ENDSEC
  0
EOF
